0
SECTION
2
HEADER
9
$MEASUREMENT
70
1
0
ENDSEC
0
SECTION
2
TABLES
0
TABLE
2
LTYPE
0
LTYPE
72
65
70
64
2
CONTINUOUS
3
______
73
0
40
0
0
ENDTAB
0
TABLE
2
LAYER
0
LAYER
2
DEFAULT_255_1_234
70
0
62
255
6
CONTINUOUS
0
LAYER
2
DEFAULT_255_2_778
70
0
62
255
6
CONTINUOUS
0
ENDTAB
0
ENDSEC
0
SECTION
2
ENTITIES
0
LINE
8
DEFAULT_255_1_234
10
7.5403137
20
-0.6674567
11
7.5403137
21
-1.8425
0
LINE
8
DEFAULT_255_1_234
10
7.5403137
20
-1.8425
11
7.3909234
21
-1.8425
0
LINE
8
DEFAULT_255_1_234
10
7.3909234
20
-1.8425
11
7.3909234
21
-0.8521867
0
LINE
8
DEFAULT_255_1_234
10
7.3909234
20
-0.8521867
11
7.0913396
21
-0.9622215
0
LINE
8
DEFAULT_255_1_234
10
7.0913396
20
-0.9622215
11
7.0913396
21
-0.8272883
0
LINE
8
DEFAULT_255_1_234
10
7.0913396
20
-0.8272883
11
7.5170217
21
-0.6674567
0
LINE
8
DEFAULT_255_1_234
10
7.5170217
20
-0.6674567
11
7.5403137
21
-0.6674567
0
LINE
8
DEFAULT_255_1_234
10
7.8100119
20
13.5753792
11
7.8100119
21
13.4541
0
LINE
8
DEFAULT_255_1_234
10
7.8100119
20
13.4541
11
7.043784
21
13.4541
0
LINE
8
DEFAULT_255_1_234
10
7.043784
20
13.4541
11
7.043784
21
13.5609221
0
LINE
8
DEFAULT_255_1_234
10
7.043784
20
13.5609221
11
7.4485836
21
14.0106995
0
LINE
8
DEFAULT_255_1_234
10
7.1698823
20
14.2789595
11
7.0212952
21
14.2789595
0
LINE
8
DEFAULT_255_1_234
10
7.5361296
20
13.9151218
11
7.2228918
21
13.5753792
0
LINE
8
DEFAULT_255_1_234
10
7.2228918
20
13.5753792
11
7.8100119
21
13.5753792
0
ARC
8
DEFAULT_255_1_234
10
6.099567
20
15.2036527
40
1.8008286
50
318.5132453
51
320.7828378
0
ARC
8
DEFAULT_255_1_234
10
6.6282644
20
14.7733426
40
1.1191493
50
320.7372736
51
323.9737074
0
ARC
8
DEFAULT_255_1_234
10
7.0202501
20
14.4893361
40
0.6350923
50
323.8961724
51
328.6421089
0
ARC
8
DEFAULT_255_1_234
10
7.2249096
20
14.3631031
40
0.3946393
50
328.8299013
51
331.789948
0
ARC
8
DEFAULT_255_1_234
10
7.3246274
20
14.3116509
40
0.2824501
50
331.4255242
51
352.9364833
0
ARC
8
DEFAULT_255_1_234
10
7.3382775
20
14.3085976
40
0.2685315
50
353.2248685
51
0.0169286
0
ARC
8
DEFAULT_255_1_234
10
7.3592652
20
14.310895
40
0.2475536
50
359.4866256
51
15.9339782
0
ARC
8
DEFAULT_255_1_234
10
7.4099637
20
14.3245286
40
0.1950618
50
16.1714718
51
43.5284424
0
ARC
8
DEFAULT_255_1_234
10
7.4176946
20
14.3322573
40
0.184134
50
43.4415429
51
83.1661404
0
ARC
8
DEFAULT_255_1_234
10
7.4042864
20
14.2585771
40
0.258926
50
82.160215
51
90.1505798
0
ARC
8
DEFAULT_255_1_234
10
7.4011291
20
14.2048865
40
0.3126255
50
89.5460705
51
102.5418777
0
ARC
8
DEFAULT_255_1_234
10
7.3768377
20
14.3079665
40
0.2067346
50
102.1739365
51
129.2061916
0
ARC
8
DEFAULT_255_1_234
10
7.3689449
20
14.3204094
40
0.1921118
50
129.7279328
51
135.7542026
0
ARC
8
DEFAULT_255_1_234
10
7.3810977
20
14.3107045
40
0.2075944
50
136.175737
51
166.3674722
0
ARC
8
DEFAULT_255_1_234
10
7.4817896
20
14.2837182
40
0.3118201
50
165.9092917
51
178.8683903
0
ARC
8
DEFAULT_255_1_234
10
7.5682757
20
14.2790179
40
0.3983935
50
178.438168
51
180.0083905
0
ARC
8
DEFAULT_255_1_234
10
7.4281359
20
14.2829231
40
0.4068601
50
163.2878735
51
180.5581814
0
ARC
8
DEFAULT_255_1_234
10
7.3479621
20
14.304984
40
0.3237344
50
133.454115
51
162.9470031
0
ARC
8
DEFAULT_255_1_234
10
7.3658162
20
14.286
40
0.349795
50
100.7869394
51
133.4384016
0
ARC
8
DEFAULT_255_1_234
10
7.4005934
20
14.1311319
40
0.5084616
50
89.6605301
51
101.3704185
0
ARC
8
DEFAULT_255_1_234
10
7.4072273
20
14.1372496
40
0.502348
50
78.2171172
51
90.4130393
0
ARC
8
DEFAULT_255_1_234
10
7.4427351
20
14.2996637
40
0.3361092
50
55.9268222
51
78.4888551
0
ARC
8
DEFAULT_255_1_234
10
7.4623791
20
14.3335324
40
0.2970617
50
47.9292255
51
55.4054003
0
ARC
8
DEFAULT_255_1_234
10
7.4725352
20
14.3438502
40
0.2825983
50
4.3347696
51
48.0560701
0
ARC
8
DEFAULT_255_1_234
10
7.3629745
20
14.3268601
40
0.393225
50
359.925209
51
5.5967654
0
ARC
8
DEFAULT_255_1_234
10
7.4058637
20
14.3324816
40
0.3503892
50
337.8914096
51
358.9967724
0
ARC
8
DEFAULT_255_1_234
10
7.1345049
20
14.4371706
40
0.6412172
50
326.9135351
51
338.3505194
0
ARC
8
DEFAULT_255_1_234
10
6.7359353
20
14.6926284
40
1.1146189
50
319.6472867
51
327.095818
0
ARC
8
DEFAULT_255_1_234
10
6.3526356
20
15.0088
40
1.6114559
50
317.2586784
51
319.9046139
0
LINE
8
DEFAULT_255_2_778
10
6.0853667
20
10.4510499
11
11.3770667
21
10.4510499
0
LINE
8
DEFAULT_255_2_778
10
11.3770667
20
10.4510499
11
11.3770667
21
2.5135499
0
LINE
8
DEFAULT_255_2_778
10
11.3770667
20
2.5135499
11
6.0853667
21
2.5135499
0
LINE
8
DEFAULT_255_2_778
10
6.0853667
20
2.5135499
11
6.0853667
21
10.4510499
0
LINE
8
DEFAULT_255_2_778
10
10.0542
20
-2.7780836
11
10.0542
21
15.7427164
0
LINE
8
DEFAULT_255_2_778
10
9.3927417
20
4.4978875
11
10.7156417
21
4.4978875
0
LINE
8
DEFAULT_255_2_778
10
10.7156417
20
4.4978875
11
10.0542417
21
2.5134875
0
LINE
8
DEFAULT_255_2_778
10
10.0542417
20
2.5134875
11
9.3927417
21
4.4978875
0
LINE
8
DEFAULT_255_2_778
10
10.0541834
20
1.1905333
11
12.6999834
21
1.1905333
0
LINE
8
DEFAULT_255_2_778
10
12.6999834
20
1.1905333
11
12.6999834
21
6.4822333
0
LINE
8
DEFAULT_255_2_778
10
12.6999834
20
6.4822333
11
11.3770834
21
6.4822333
0
LINE
8
DEFAULT_255_2_778
10
3.4395834
20
6.4823166
11
3.6599834
21
7.8052166
0
LINE
8
DEFAULT_255_2_778
10
3.6599834
20
7.8052166
11
4.1010834
21
5.1594166
0
LINE
8
DEFAULT_255_2_778
10
4.1010834
20
5.1594166
11
4.5420834
21
7.8052166
0
LINE
8
DEFAULT_255_2_778
10
4.5420834
20
7.8052166
11
4.9831834
21
5.1594166
0
LINE
8
DEFAULT_255_2_778
10
4.9831834
20
5.1594166
11
5.4239834
21
7.8052166
0
LINE
8
DEFAULT_255_2_778
10
5.4239834
20
7.8052166
11
5.8649834
21
5.1594166
0
LINE
8
DEFAULT_255_2_778
10
5.8649834
20
5.1594166
11
6.0853834
21
6.4823166
0
LINE
8
DEFAULT_255_2_778
10
4.7625
20
6.4822916
11
4.7625
21
-0.1323084
0
LINE
8
DEFAULT_255_2_778
10
3.4395834
20
1.1905583
11
3.4395834
21
-0.1323417
0
LINE
8
DEFAULT_255_2_778
10
3.4395834
20
-0.1323417
11
6.0853834
21
-0.1323417
0
LINE
8
DEFAULT_255_2_778
10
6.0853834
20
-0.1323417
11
6.0853834
21
1.1905583
0
ENDSEC
0
EOF