0
SECTION
2
HEADER
9
$MEASUREMENT
70
1
0
ENDSEC
0
SECTION
2
TABLES
0
TABLE
2
LTYPE
0
LTYPE
72
65
70
64
2
CONTINUOUS
3
______
73
0
40
0
0
ENDTAB
0
TABLE
2
LAYER
0
LAYER
2
DEFAULT_255_2_778
70
0
62
255
6
CONTINUOUS
0
LAYER
2
DEFAULT_255_1_234
70
0
62
255
6
CONTINUOUS
0
ENDTAB
0
ENDSEC
0
SECTION
2
ENTITIES
0
LINE
8
DEFAULT_255_2_778
10
5.0270667
20
10.4510499
11
10.3187667
21
10.4510499
0
LINE
8
DEFAULT_255_2_778
10
10.3187667
20
10.4510499
11
10.3187667
21
2.5135499
0
LINE
8
DEFAULT_255_2_778
10
10.3187667
20
2.5135499
11
5.0270667
21
2.5135499
0
LINE
8
DEFAULT_255_2_778
10
5.0270667
20
2.5135499
11
5.0270667
21
10.4510499
0
LINE
8
DEFAULT_255_2_778
10
6.35
20
2.5135499
11
6.35
21
10.4510499
0
LINE
8
DEFAULT_255_2_778
10
10.3187834
20
9.1281166
11
10.5391834
21
10.4510166
0
LINE
8
DEFAULT_255_2_778
10
10.5391834
20
10.4510166
11
10.9802834
21
7.8052166
0
LINE
8
DEFAULT_255_2_778
10
10.9802834
20
7.8052166
11
11.4212834
21
10.4510166
0
LINE
8
DEFAULT_255_2_778
10
11.4212834
20
10.4510166
11
11.8623834
21
7.8052166
0
LINE
8
DEFAULT_255_2_778
10
11.8623834
20
7.8052166
11
12.3031834
21
10.4510166
0
LINE
8
DEFAULT_255_2_778
10
12.3031834
20
10.4510166
11
12.7441834
21
7.8052166
0
LINE
8
DEFAULT_255_2_778
10
12.7441834
20
7.8052166
11
12.9645834
21
9.1281166
0
LINE
8
DEFAULT_255_2_778
10
5.0270251
20
6.4822333
11
3.7041251
21
6.4822333
0
LINE
8
DEFAULT_255_2_778
10
3.7041251
20
6.4822333
11
3.7041251
21
11.7739333
0
LINE
8
DEFAULT_255_2_778
10
3.7041251
20
11.7739333
11
5.6885251
21
11.7739333
0
LINE
8
DEFAULT_255_2_778
10
5.6885251
20
11.7739333
11
7.6728251
21
10.4510333
0
LINE
8
DEFAULT_255_2_778
10
5.6885417
20
4.4978875
11
7.0114417
21
4.4978875
0
LINE
8
DEFAULT_255_2_778
10
7.0114417
20
4.4978875
11
6.3500417
21
2.5134875
0
LINE
8
DEFAULT_255_2_778
10
6.3500417
20
2.5134875
11
5.6885417
21
4.4978875
0
LINE
8
DEFAULT_255_2_778
10
7.6729
20
-2.7781667
11
7.6729
21
2.5135333
0
LINE
8
DEFAULT_255_2_778
10
7.6729
20
10.4509333
11
7.6729
21
15.7426333
0
LINE
8
DEFAULT_255_2_778
10
15.6104667
20
5.1593
11
10.3187667
21
5.1593
0
LINE
8
DEFAULT_255_1_234
10
5.1591137
20
-0.6674567
11
5.1591137
21
-1.8425
0
LINE
8
DEFAULT_255_1_234
10
5.1591137
20
-1.8425
11
5.0097234
21
-1.8425
0
LINE
8
DEFAULT_255_1_234
10
5.0097234
20
-1.8425
11
5.0097234
21
-0.8521867
0
LINE
8
DEFAULT_255_1_234
10
5.0097234
20
-0.8521867
11
4.7101396
21
-0.9622215
0
LINE
8
DEFAULT_255_1_234
10
4.7101396
20
-0.9622215
11
4.7101396
21
-0.8272883
0
LINE
8
DEFAULT_255_1_234
10
4.7101396
20
-0.8272883
11
5.1358217
21
-0.6674567
0
LINE
8
DEFAULT_255_1_234
10
5.1358217
20
-0.6674567
11
5.1591137
21
-0.6674567
0
LINE
8
DEFAULT_255_1_234
10
12.8160378
20
6.6312169
11
12.8160378
21
6.7524962
0
LINE
8
DEFAULT_255_1_234
10
12.8160378
20
6.7524962
11
12.927679
21
6.7524962
0
LINE
8
DEFAULT_255_1_234
10
12.7373268
20
6.9581087
11
12.5887396
21
6.9581087
0
LINE
8
DEFAULT_255_1_234
10
12.5782983
20
6.4039188
11
12.7276887
21
6.4039188
0
LINE
8
DEFAULT_255_1_234
10
12.927679
20
6.6312169
11
12.8160378
21
6.6312169
0
ARC
8
DEFAULT_255_1_234
10
12.9247656
20
7.0917713
40
0.3392876
50
270.4919872
51
281.8951556
0
ARC
8
DEFAULT_255_1_234
10
12.9488918
20
6.9815702
40
0.2264817
50
281.6691735
51
301.2943132
0
ARC
8
DEFAULT_255_1_234
10
12.9659128
20
6.9504304
40
0.1910381
50
301.7833094
51
311.7545298
0
ARC
8
DEFAULT_255_1_234
10
12.9750704
20
6.9402748
40
0.1773635
50
311.7323931
51
354.2802411
0
ARC
8
DEFAULT_255_1_234
10
12.9024329
20
6.9527722
40
0.2509385
50
353.0937916
51
0.1181479
0
ARC
8
DEFAULT_255_1_234
10
12.8563114
20
6.9575386
40
0.2970898
50
359.1805295
51
15.0453146
0
ARC
8
DEFAULT_255_1_234
10
12.9908951
20
6.9967992
40
0.1569564
50
13.9577229
51
77.6713066
0
ARC
8
DEFAULT_255_1_234
10
12.952248
20
6.8582949
40
0.3006298
50
76.1116566
51
90.7026153
0
ARC
8
DEFAULT_255_1_234
10
12.9463318
20
6.8856545
40
0.2732568
50
89.5324876
51
103.531937
0
ARC
8
DEFAULT_255_1_234
10
12.9262762
20
6.9655884
40
0.1908508
50
103.2931773
51
133.5619022
0
ARC
8
DEFAULT_255_1_234
10
12.9218251
20
6.9715375
40
0.1834746
50
133.8349307
51
173.5344437
0
ARC
8
DEFAULT_255_1_234
10
12.9941294
20
6.9587213
40
0.2568033
50
172.5096846
51
180.1366907
0
ARC
8
DEFAULT_255_1_234
10
12.8990188
20
6.9621622
40
0.3103056
50
155.3484492
51
180.7484736
0
ARC
8
DEFAULT_255_1_234
10
12.8941277
20
6.9592846
40
0.3070957
50
131.5744599
51
154.4798489
0
ARC
8
DEFAULT_255_1_234
10
12.9254424
20
6.927631
40
0.3515643
50
96.9875458
51
131.9690667
0
ARC
8
DEFAULT_255_1_234
10
12.9473904
20
6.8030636
40
0.4779224
50
89.8596053
51
97.7825159
0
ARC
8
DEFAULT_255_1_234
10
12.9521967
20
6.7768616
40
0.5041361
50
78.3655447
51
90.4131539
0
ARC
8
DEFAULT_255_1_234
10
12.9879885
20
6.9427887
40
0.3344039
50
56.6229102
51
78.638727
0
ARC
8
DEFAULT_255_1_234
10
13.0094829
20
6.9803805
40
0.2912001
50
47.0253525
51
56.0854072
0
ARC
8
DEFAULT_255_1_234
10
13.0114609
20
6.9843223
40
0.2869704
50
10.9208013
51
46.7778124
0
ARC
8
DEFAULT_255_1_234
10
12.8750675
20
6.9527857
40
0.426899
50
359.6364486
51
11.6087304
0
ARC
8
DEFAULT_255_1_234
10
13.0585519
20
6.9512752
40
0.243409
50
332.3549906
51
359.7179418
0
ARC
8
DEFAULT_255_1_234
10
12.9935121
20
6.9821142
40
0.3153459
50
325.2333722
51
332.8745602
0
ARC
8
DEFAULT_255_1_234
10
13.0087744
20
6.9714828
40
0.2967456
50
292.9802137
51
325.2392345
0
ARC
8
DEFAULT_255_1_234
10
12.9813118
20
7.0248863
40
0.3566604
50
292.5402179
51
293.6924929
0
ARC
8
DEFAULT_255_1_234
10
13.0205714
20
6.3794091
40
0.3307468
50
57.6435486
51
72.8625112
0
ARC
8
DEFAULT_255_1_234
10
13.0560214
20
6.4368549
40
0.2632492
50
36.7248896
51
57.4697979
0
ARC
8
DEFAULT_255_1_234
10
13.0548847
20
6.438122
40
0.2634081
50
8.0545065
51
36.356114
0
ARC
8
DEFAULT_255_1_234
10
12.9686032
20
6.4226174
40
0.3510261
50
359.8320645
51
8.5869982
0
ARC
8
DEFAULT_255_1_234
10
12.9310808
20
6.4178101
40
0.3885653
50
343.9829931
51
0.5571613
0
ARC
8
DEFAULT_255_1_234
10
13.0197005
20
6.3935438
40
0.2966924
50
311.6359546
51
343.7651759
0
ARC
8
DEFAULT_255_1_234
10
12.9818574
20
6.4362102
40
0.3537231
50
279.7829875
51
311.6255694
0
ARC
8
DEFAULT_255_1_234
10
12.9517351
20
6.579928
40
0.5004971
50
269.7286406
51
280.3856417
0
ARC
8
DEFAULT_255_1_234
10
12.9455423
20
6.5757996
40
0.4963778
50
256.6828919
51
270.4412052
0
ARC
8
DEFAULT_255_1_234
10
12.9116719
20
6.4373394
40
0.3538406
50
229.4223008
51
256.8556159
0
ARC
8
DEFAULT_255_1_234
10
12.8702112
20
6.3906736
40
0.2914296
50
181.818294
51
229.6455059
0
ARC
8
DEFAULT_255_1_234
10
12.9742068
20
6.4037496
40
0.3959084
50
179.9755256
51
183.2323064
0
ARC
8
DEFAULT_255_1_234
10
12.9569814
20
6.4017037
40
0.2293034
50
179.4465117
51
196.2869258
0
ARC
8
DEFAULT_255_1_234
10
12.9082222
20
6.3883651
40
0.1787621
50
196.5661473
51
227.705904
0
ARC
8
DEFAULT_255_1_234
10
12.9246317
20
6.4067155
40
0.2033784
50
227.7652068
51
257.8762805
0
ARC
8
DEFAULT_255_1_234
10
12.9471287
20
6.5010156
40
0.3003081
50
257.4584385
51
270.426602
0
ARC
8
DEFAULT_255_1_234
10
12.9516853
20
6.5299996
40
0.329292
50
269.5962073
51
280.8789248
0
ARC
8
DEFAULT_255_1_234
10
12.9746382
20
6.4153685
40
0.2123908
50
280.6346389
51
299.8595945
0
ARC
8
DEFAULT_255_1_234
10
12.9937289
20
6.3791212
40
0.171457
50
300.3576302
51
314.5517981
0
ARC
8
DEFAULT_255_1_234
10
12.9854349
20
6.3851919
40
0.1816095
50
315.0728369
51
345.0431014
0
ARC
8
DEFAULT_255_1_234
10
12.8931163
20
6.4120841
40
0.2777492
50
344.5986631
51
357.9269593
0
ARC
8
DEFAULT_255_1_234
10
12.8035489
20
6.4182276
40
0.3674917
50
357.4748886
51
0.0231117
0
ARC
8
DEFAULT_255_1_234
10
12.9058599
20
6.4206679
40
0.2651907
50
359.5047933
51
13.4239635
0
ARC
8
DEFAULT_255_1_234
10
12.9925242
20
6.4428478
40
0.1757509
50
12.9498199
51
48.7551375
0
ARC
8
DEFAULT_255_1_234
10
12.9742976
20
6.41794
40
0.2065134
50
49.5088623
51
72.1836453
0
ARC
8
DEFAULT_255_1_234
10
12.9385129
20
6.3117291
40
0.3185836
50
71.9010081
51
84.3554254
0
ARC
8
DEFAULT_255_1_234
10
12.9223761
20
6.1756326
40
0.4556151
50
84.0193428
51
89.333121
0
LINE
8
DEFAULT_255_1_234
10
5.4287119
20
13.5753792
11
5.4287119
21
13.4541
0
LINE
8
DEFAULT_255_1_234
10
5.4287119
20
13.4541
11
4.662484
21
13.4541
0
LINE
8
DEFAULT_255_1_234
10
4.662484
20
13.4541
11
4.662484
21
13.5609221
0
LINE
8
DEFAULT_255_1_234
10
4.662484
20
13.5609221
11
5.0672836
21
14.0106995
0
LINE
8
DEFAULT_255_1_234
10
4.7885823
20
14.2789595
11
4.6399952
21
14.2789595
0
LINE
8
DEFAULT_255_1_234
10
5.1548296
20
13.9151218
11
4.8415918
21
13.5753792
0
LINE
8
DEFAULT_255_1_234
10
4.8415918
20
13.5753792
11
5.4287119
21
13.5753792
0
ARC
8
DEFAULT_255_1_234
10
3.718267
20
15.2036527
40
1.8008286
50
318.5132453
51
320.7828378
0
ARC
8
DEFAULT_255_1_234
10
4.2469644
20
14.7733426
40
1.1191493
50
320.7372736
51
323.9737074
0
ARC
8
DEFAULT_255_1_234
10
4.6389501
20
14.4893361
40
0.6350923
50
323.8961724
51
328.6421089
0
ARC
8
DEFAULT_255_1_234
10
4.8436096
20
14.3631031
40
0.3946393
50
328.8299013
51
331.789948
0
ARC
8
DEFAULT_255_1_234
10
4.9433274
20
14.3116509
40
0.2824501
50
331.4255242
51
352.9364833
0
ARC
8
DEFAULT_255_1_234
10
4.9569775
20
14.3085976
40
0.2685315
50
353.2248685
51
0.0169286
0
ARC
8
DEFAULT_255_1_234
10
4.9779652
20
14.310895
40
0.2475536
50
359.4866256
51
15.9339782
0
ARC
8
DEFAULT_255_1_234
10
5.0286637
20
14.3245286
40
0.1950618
50
16.1714718
51
43.5284424
0
ARC
8
DEFAULT_255_1_234
10
5.0363946
20
14.3322573
40
0.184134
50
43.4415429
51
83.1661404
0
ARC
8
DEFAULT_255_1_234
10
5.0229864
20
14.2585771
40
0.258926
50
82.160215
51
90.1505798
0
ARC
8
DEFAULT_255_1_234
10
5.0198291
20
14.2048865
40
0.3126255
50
89.5460705
51
102.5418777
0
ARC
8
DEFAULT_255_1_234
10
4.9955377
20
14.3079665
40
0.2067346
50
102.1739365
51
129.2061916
0
ARC
8
DEFAULT_255_1_234
10
4.9876449
20
14.3204094
40
0.1921118
50
129.7279328
51
135.7542026
0
ARC
8
DEFAULT_255_1_234
10
4.9997977
20
14.3107045
40
0.2075944
50
136.175737
51
166.3674722
0
ARC
8
DEFAULT_255_1_234
10
5.1004896
20
14.2837182
40
0.3118201
50
165.9092917
51
178.8683903
0
ARC
8
DEFAULT_255_1_234
10
5.1869757
20
14.2790179
40
0.3983935
50
178.438168
51
180.0083905
0
ARC
8
DEFAULT_255_1_234
10
5.0468359
20
14.2829231
40
0.4068601
50
163.2878735
51
180.5581814
0
ARC
8
DEFAULT_255_1_234
10
4.9666621
20
14.304984
40
0.3237344
50
133.454115
51
162.9470031
0
ARC
8
DEFAULT_255_1_234
10
4.9845162
20
14.286
40
0.349795
50
100.7869394
51
133.4384016
0
ARC
8
DEFAULT_255_1_234
10
5.0192934
20
14.1311319
40
0.5084616
50
89.6605301
51
101.3704185
0
ARC
8
DEFAULT_255_1_234
10
5.0259273
20
14.1372496
40
0.502348
50
78.2171172
51
90.4130393
0
ARC
8
DEFAULT_255_1_234
10
5.0614351
20
14.2996637
40
0.3361092
50
55.9268222
51
78.4888551
0
ARC
8
DEFAULT_255_1_234
10
5.0810791
20
14.3335324
40
0.2970617
50
47.9292255
51
55.4054003
0
ARC
8
DEFAULT_255_1_234
10
5.0912352
20
14.3438502
40
0.2825983
50
4.3347696
51
48.0560701
0
ARC
8
DEFAULT_255_1_234
10
4.9816745
20
14.3268601
40
0.393225
50
359.925209
51
5.5967654
0
ARC
8
DEFAULT_255_1_234
10
5.0245637
20
14.3324816
40
0.3503892
50
337.8914096
51
358.9967724
0
ARC
8
DEFAULT_255_1_234
10
4.7532049
20
14.4371706
40
0.6412172
50
326.9135351
51
338.3505194
0
ARC
8
DEFAULT_255_1_234
10
4.3546353
20
14.6926284
40
1.1146189
50
319.6472867
51
327.095818
0
ARC
8
DEFAULT_255_1_234
10
3.9713356
20
15.0088
40
1.6114559
50
317.2586784
51
319.9046139
0
ENDSEC
0
EOF