0
SECTION
2
HEADER
9
$MEASUREMENT
70
1
0
ENDSEC
0
SECTION
2
TABLES
0
TABLE
2
LTYPE
0
LTYPE
72
65
70
64
2
CONTINUOUS
3
______
73
0
40
0
0
ENDTAB
0
TABLE
2
LAYER
0
LAYER
2
DEFAULT_255_2_778
70
0
62
255
6
CONTINUOUS
0
LAYER
2
DEFAULT_255_1_388
70
0
62
255
6
CONTINUOUS
0
ENDTAB
0
ENDSEC
0
SECTION
2
ENTITIES
0
LINE
8
DEFAULT_255_2_778
10
10.8476667
20
2.5135499
11
5.5559667
21
2.5135499
0
LINE
8
DEFAULT_255_2_778
10
5.5559667
20
2.5135499
11
5.5559667
21
10.4510499
0
LINE
8
DEFAULT_255_2_778
10
5.5559667
20
10.4510499
11
10.8476667
21
10.4510499
0
LINE
8
DEFAULT_255_2_778
10
10.8476667
20
10.4510499
11
10.8476667
21
2.5135499
0
LINE
8
DEFAULT_255_2_778
10
6.8789
20
10.4510499
11
6.8789
21
2.5135499
0
LINE
8
DEFAULT_255_2_778
10
10.8476834
20
3.8364166
11
11.0680834
21
2.5135166
0
LINE
8
DEFAULT_255_2_778
10
11.0680834
20
2.5135166
11
11.5091834
21
5.1593166
0
LINE
8
DEFAULT_255_2_778
10
11.5091834
20
5.1593166
11
11.9501834
21
2.5135166
0
LINE
8
DEFAULT_255_2_778
10
11.9501834
20
2.5135166
11
12.3912834
21
5.1593166
0
LINE
8
DEFAULT_255_2_778
10
12.3912834
20
5.1593166
11
12.8320834
21
2.5135166
0
LINE
8
DEFAULT_255_2_778
10
12.8320834
20
2.5135166
11
13.2730834
21
5.1593166
0
LINE
8
DEFAULT_255_2_778
10
13.2730834
20
5.1593166
11
13.4934834
21
3.8364166
0
LINE
8
DEFAULT_255_2_778
10
5.5559251
20
6.4822333
11
4.2330251
21
6.4822333
0
LINE
8
DEFAULT_255_2_778
10
4.2330251
20
6.4822333
11
4.2330251
21
1.1905333
0
LINE
8
DEFAULT_255_2_778
10
4.2330251
20
1.1905333
11
5.5559251
21
1.1905333
0
LINE
8
DEFAULT_255_2_778
10
5.5559251
20
1.1905333
11
8.2017251
21
2.5135333
0
LINE
8
DEFAULT_255_2_778
10
6.2174417
20
8.4665875
11
7.5403417
21
8.4665875
0
LINE
8
DEFAULT_255_2_778
10
7.5403417
20
8.4665875
11
6.8789417
21
10.4509875
0
LINE
8
DEFAULT_255_2_778
10
6.8789417
20
10.4509875
11
6.2174417
21
8.4665875
0
LINE
8
DEFAULT_255_2_778
10
8.2018
20
15.7426333
11
8.2018
21
10.4509333
0
LINE
8
DEFAULT_255_2_778
10
8.2018
20
2.5135333
11
8.2018
21
-2.7781667
0
LINE
8
DEFAULT_255_2_778
10
16.1392834
20
2.5135
11
13.4934834
21
2.5135
0
LINE
8
DEFAULT_255_2_778
10
13.4934834
20
2.5135
11
13.4934834
21
5.6885
0
LINE
8
DEFAULT_255_2_778
10
13.4934834
20
5.6885
11
16.1392834
21
5.6885
0
LINE
8
DEFAULT_255_2_778
10
16.1392834
20
5.6885
11
16.1392834
21
2.5135
0
LINE
8
DEFAULT_255_2_778
10
15.4778417
20
2.5135
11
14.1549417
21
5.6885
0
LINE
8
DEFAULT_255_2_778
10
20.1080251
20
2.5135749
11
16.1393251
21
2.5135749
0
LINE
8
DEFAULT_255_2_778
10
16.1393251
20
2.5135749
11
16.1393251
21
6.4822749
0
LINE
8
DEFAULT_255_2_778
10
16.1393251
20
6.4822749
11
20.1080251
21
6.4822749
0
LINE
8
DEFAULT_255_2_778
10
20.1080251
20
6.4822749
11
20.1080251
21
2.5135749
0
LINE
8
DEFAULT_255_2_778
10
17.8590333
20
5.0270667
11
16.8007333
21
4.4978667
0
LINE
8
DEFAULT_255_2_778
10
16.8007333
20
4.4978667
11
17.8590333
21
3.9687667
0
LINE
8
DEFAULT_255_2_778
10
19.4465333
20
4.7624667
11
19.4465333
21
5.8207667
0
LINE
8
DEFAULT_255_2_778
10
19.4465333
20
5.8207667
11
18.3882333
21
5.3045667
0
LINE
8
DEFAULT_255_2_778
10
19.4465333
20
4.2332667
11
19.4465333
21
3.1749667
0
LINE
8
DEFAULT_255_2_778
10
19.4465333
20
3.1749667
11
18.3882333
21
3.6911667
0
LINE
8
DEFAULT_255_2_778
10
13.3170219
20
0.6614666
11
15.7864219
21
8.0697666
0
LINE
8
DEFAULT_255_2_778
10
15.7864219
20
8.0697666
11
15.7864219
21
6.0941666
0
LINE
8
DEFAULT_255_2_778
10
15.7864219
20
6.0941666
11
14.6751219
21
6.5880666
0
LINE
8
DEFAULT_255_2_778
10
14.6751219
20
6.5880666
11
15.7864219
21
8.0697666
0
LINE
8
DEFAULT_255_2_778
10
16.1393251
20
10.4509749
11
20.1080251
21
10.4509749
0
LINE
8
DEFAULT_255_2_778
10
20.1080251
20
10.4509749
11
20.1080251
21
6.4822749
0
LINE
8
DEFAULT_255_2_778
10
20.1080251
20
6.4822749
11
16.1393251
21
6.4822749
0
LINE
8
DEFAULT_255_2_778
10
16.1393251
20
6.4822749
11
16.1393251
21
10.4509749
0
LINE
8
DEFAULT_255_2_778
10
16.1393251
20
6.4822749
11
20.1080251
21
10.4509749
0
ARC
8
DEFAULT_255_2_778
10
19.2162616
20
7.3358062
40
0.4024923
50
290.5017946
51
324.5226492
0
ARC
8
DEFAULT_255_2_778
10
19.0970799
20
7.648779
40
0.7373864
50
270.0754912
51
290.6586199
0
ARC
8
DEFAULT_255_2_778
10
19.0784149
20
7.948943
40
1.0377356
50
269.995266
51
271.0842426
0
ARC
8
DEFAULT_255_2_778
10
19.0684229
20
7.4526475
40
0.5415308
50
239.3837644
51
271.0481796
0
ARC
8
DEFAULT_255_2_778
10
19.0535859
20
7.4156086
40
0.502136
50
205.2507314
51
238.6883149
0
ARC
8
DEFAULT_255_2_778
10
19.2645283
20
7.5141561
40
0.7349617
50
180.3293581
51
205.1842642
0
ARC
8
DEFAULT_255_2_778
10
19.5288901
20
7.5345433
40
0.9996143
50
180.5924517
51
181.4108539
0
ARC
8
DEFAULT_255_2_778
10
19.4564203
20
7.651921
40
0.9271797
50
164.8667099
51
180.7918563
0
ARC
8
DEFAULT_255_2_778
10
19.0890988
20
7.7513948
40
0.5466272
50
140.3484005
51
164.8802552
0
ARC
8
DEFAULT_255_2_778
10
19.0232511
20
7.793601
40
0.4690927
50
91.3278743
51
139.1852432
0
ARC
8
DEFAULT_255_2_778
10
19.0580621
20
7.5386728
40
0.7253348
50
89.9631066
51
93.6108854
0
ARC
8
DEFAULT_255_2_778
10
19.0718327
20
7.6984112
40
0.5657525
50
66.3059111
51
91.3474158
0
ARC
8
DEFAULT_255_2_778
10
19.1263759
20
7.8430151
40
0.4115009
50
50.1006845
51
65.1691083
0
ARC
8
DEFAULT_255_2_778
10
19.0958679
20
7.8202064
40
0.4486538
50
8.4984041
51
48.9800573
0
ARC
8
DEFAULT_255_2_778
10
18.876626
20
7.7630729
40
0.6743629
50
8.2386952
51
10.5469732
0
ARC
8
DEFAULT_255_2_778
10
19.0293175
20
7.8094761
40
0.3447903
50
8.3770151
51
40.5744377
0
ARC
8
DEFAULT_255_2_778
10
19.0853925
20
7.8328769
40
0.2875858
50
44.3024288
51
90.1068298
0
ARC
8
DEFAULT_255_2_778
10
19.0595786
20
7.6258198
40
0.4952877
50
87.0745665
51
90.0288544
0
ARC
8
DEFAULT_255_2_778
10
19.0407528
20
7.8142142
40
0.3074548
50
86.5360923
51
143.1486859
0
ARC
8
DEFAULT_255_2_778
10
19.1753282
20
7.7346691
40
0.4631619
50
145.2594255
51
171.2039069
0
ARC
8
DEFAULT_255_2_778
10
19.6213345
20
7.6475812
40
0.917414
50
170.0883543
51
180.2481891
0
ARC
8
DEFAULT_255_2_778
10
19.3860755
20
7.5231843
40
0.6822649
50
178.9314744
51
198.6605253
0
ARC
8
DEFAULT_255_2_778
10
19.1520943
20
7.4499524
40
0.437187
50
199.3790637
51
217.5169338
0
ARC
8
DEFAULT_255_2_778
10
19.067762
20
7.3813063
40
0.3285063
50
216.9779471
51
272.0353341
0
ARC
8
DEFAULT_255_2_778
10
19.0895402
20
7.6571955
40
0.6042728
50
269.0412554
51
285.4315412
0
ARC
8
DEFAULT_255_2_778
10
19.1794634
20
7.3287331
40
0.2637254
50
285.5875432
51
316.7423359
0
LINE
8
DEFAULT_255_2_778
10
19.5440292
20
7.5851073
11
19.5440292
21
7.1022073
0
LINE
8
DEFAULT_255_2_778
10
18.5293292
20
7.5242073
11
18.5293292
21
7.6391073
0
LINE
8
DEFAULT_255_2_778
10
19.5440292
20
7.8597073
11
19.3704292
21
7.8597073
0
LINE
8
DEFAULT_255_2_778
10
18.7039292
20
7.6436073
11
18.7039292
21
7.5359073
0
LINE
8
DEFAULT_255_2_778
10
19.3715292
20
7.1480073
11
19.3715292
21
7.4438073
0
LINE
8
DEFAULT_255_2_778
10
19.3715292
20
7.4438073
11
19.0667292
21
7.4438073
0
LINE
8
DEFAULT_255_2_778
10
19.0667292
20
7.4438073
11
19.0667292
21
7.5848073
0
LINE
8
DEFAULT_255_2_778
10
19.0667292
20
7.5848073
11
19.5442292
21
7.5848073
0
LINE
8
DEFAULT_255_2_778
10
19.5442292
20
7.5848073
11
19.5440292
21
7.5851073
0
ARC
8
DEFAULT_255_2_778
10
17.2701771
20
9.4256779
40
0.4076666
50
88.5588215
51
142.8065642
0
ARC
8
DEFAULT_255_2_778
10
17.2935373
20
9.4291202
40
0.4043079
50
63.8921909
51
91.8577664
0
ARC
8
DEFAULT_255_2_778
10
17.3250104
20
9.5292614
40
0.3009496
50
10.6910721
51
60.8815264
0
ARC
8
DEFAULT_255_2_778
10
16.9806065
20
9.4361419
40
0.6572303
50
359.7448959
51
13.0988913
0
ARC
8
DEFAULT_255_2_778
10
17.1344864
20
9.4438539
40
0.3121926
50
358.2308405
51
24.9439247
0
ARC
8
DEFAULT_255_2_778
10
17.2682676
20
9.4990009
40
0.1677558
50
27.1360566
51
42.8626846
0
ARC
8
DEFAULT_255_2_778
10
17.2496663
20
9.4658068
40
0.2043042
50
46.13929
51
89.911077
0
ARC
8
DEFAULT_255_2_778
10
17.2226812
20
9.2587598
40
0.4122562
50
86.2027446
51
90.0626808
0
ARC
8
DEFAULT_255_2_778
10
17.2167231
20
9.395982
40
0.2750888
50
88.8528887
51
125.0021374
0
ARC
8
DEFAULT_255_2_778
10
17.2546103
20
9.3456005
40
0.3380969
50
125.364017
51
154.5073841
0
LINE
8
DEFAULT_255_2_778
10
16.7584302
20
9.8126156
11
16.9393302
21
9.8126156
0
LINE
8
DEFAULT_255_2_778
10
16.9393302
20
9.8126156
11
16.9454302
21
9.6721156
0
LINE
8
DEFAULT_255_2_778
10
17.6378302
20
9.4332156
11
17.6378302
21
8.6942156
0
LINE
8
DEFAULT_255_2_778
10
17.6378302
20
8.6942156
11
17.4465302
21
8.6942156
0
LINE
8
DEFAULT_255_2_778
10
17.4465302
20
8.6942156
11
17.4465302
21
9.4342156
0
LINE
8
DEFAULT_255_2_778
10
16.9494302
20
9.4911156
11
16.9494302
21
8.6942156
0
LINE
8
DEFAULT_255_2_778
10
16.9494302
20
8.6942156
11
16.7581302
21
8.6942156
0
LINE
8
DEFAULT_255_2_778
10
16.7581302
20
8.6942156
11
16.7581302
21
9.8126156
0
LINE
8
DEFAULT_255_2_778
10
16.7581302
20
9.8126156
11
16.7584302
21
9.8126156
0
LINE
8
DEFAULT_255_1_388
10
5.7035985
20
-0.5089852
11
5.7035985
21
-1.8309
0
LINE
8
DEFAULT_255_1_388
10
5.7035985
20
-1.8309
11
5.5355355
21
-1.8309
0
LINE
8
DEFAULT_255_1_388
10
5.5355355
20
-1.8309
11
5.5355355
21
-0.716805
0
LINE
8
DEFAULT_255_1_388
10
5.5355355
20
-0.716805
11
5.198506
21
-0.8405934
0
LINE
8
DEFAULT_255_1_388
10
5.198506
20
-0.8405934
11
5.198506
21
-0.6887945
0
LINE
8
DEFAULT_255_1_388
10
5.198506
20
-0.6887945
11
5.6773951
21
-0.5089852
0
LINE
8
DEFAULT_255_1_388
10
5.6773951
20
-0.5089852
11
5.7035985
21
-0.5089852
0
LINE
8
DEFAULT_255_1_388
10
6.0079318
20
13.6021382
11
6.0079318
21
13.4657
0
LINE
8
DEFAULT_255_1_388
10
6.0079318
20
13.4657
11
5.1459313
21
13.4657
0
LINE
8
DEFAULT_255_1_388
10
5.1459313
20
13.4657
11
5.1459313
21
13.5858741
0
LINE
8
DEFAULT_255_1_388
10
5.1459313
20
13.5858741
11
5.6013278
21
14.0918702
0
LINE
8
DEFAULT_255_1_388
10
5.2877909
20
14.3936607
11
5.1206315
21
14.3936607
0
LINE
8
DEFAULT_255_1_388
10
5.6998163
20
13.984346
11
5.3474262
21
13.6021382
0
LINE
8
DEFAULT_255_1_388
10
5.3474262
20
13.6021382
11
6.0079318
21
13.6021382
0
ARC
8
DEFAULT_255_1_388
10
4.0837337
20
15.4338983
40
2.0258655
50
318.5132526
51
320.7829045
0
ARC
8
DEFAULT_255_1_388
10
4.6785294
20
14.9497929
40
1.2589638
50
320.7372878
51
323.9739031
0
ARC
8
DEFAULT_255_1_388
10
5.1194226
20
14.6303554
40
0.7145141
50
323.8962701
51
328.64194
0
ARC
8
DEFAULT_255_1_388
10
5.3496484
20
14.4883545
40
0.4440242
50
328.8294576
51
331.7891185
0
ARC
8
DEFAULT_255_1_388
10
5.4618804
20
14.4304374
40
0.3177517
50
331.4254512
51
352.9365785
0
ARC
8
DEFAULT_255_1_388
10
5.4771804
20
14.427005
40
0.3021496
50
353.2257659
51
0.0166158
0
ARC
8
DEFAULT_255_1_388
10
5.5008564
20
14.4295894
40
0.2784847
50
359.486299
51
15.9343185
0
ARC
8
DEFAULT_255_1_388
10
5.5578831
20
14.4449269
40
0.2194403
50
16.1712913
51
43.5286088
0
ARC
8
DEFAULT_255_1_388
10
5.5665776
20
14.4536191
40
0.2071504
50
43.4417391
51
83.1661095
0
ARC
8
DEFAULT_255_1_388
10
5.5514937
20
14.3707316
40
0.2912888
50
82.160179
51
90.1505708
0
ARC
8
DEFAULT_255_1_388
10
5.5479418
20
14.3103279
40
0.3517025
50
89.5460741
51
102.5418361
0
ARC
8
DEFAULT_255_1_388
10
5.5206138
20
14.4262933
40
0.2325748
50
102.1738499
51
129.206123
0
ARC
8
DEFAULT_255_1_388
10
5.5117592
20
14.4402664
40
0.2161591
50
129.72865
51
135.753947
0
ARC
8
DEFAULT_255_1_388
10
5.5254074
20
14.4293728
40
0.2335433
50
136.1757367
51
166.3673339
0
ARC
8
DEFAULT_255_1_388
10
5.6386762
20
14.3990148
40
0.3507873
50
165.9090694
51
178.8684636
0
ARC
8
DEFAULT_255_1_388
10
5.7362534
20
14.3937263
40
0.4484624
50
178.4391136
51
180.0083808
0
ARC
8
DEFAULT_255_1_388
10
5.5783235
20
14.3981197
40
0.4577138
50
163.2878482
51
180.5581842
0
ARC
8
DEFAULT_255_1_388
10
5.4881276
20
14.4229393
40
0.3641968
50
133.4540601
51
162.947111
0
ARC
8
DEFAULT_255_1_388
10
5.5082158
20
14.4015789
40
0.3935189
50
100.7869829
51
133.4382499
0
ARC
8
DEFAULT_255_1_388
10
5.5473403
20
14.2273399
40
0.5720313
50
89.660664
51
101.3702276
0
ARC
8
DEFAULT_255_1_388
10
5.5548012
20
14.2342263
40
0.5651495
50
78.2172678
51
90.412935
0
ARC
8
DEFAULT_255_1_388
10
5.5947478
20
14.4169511
40
0.378122
50
55.9269121
51
78.4888449
0
ARC
8
DEFAULT_255_1_388
10
5.6168193
20
14.4550187
40
0.3342379
50
47.929771
51
55.4049217
0
ARC
8
DEFAULT_255_1_388
10
5.6282723
20
14.4666618
40
0.3179217
50
4.334829
51
48.0560205
0
ARC
8
DEFAULT_255_1_388
10
5.5050525
20
14.4475487
40
0.442341
50
359.9251713
51
5.5971671
0
ARC
8
DEFAULT_255_1_388
10
5.553268
20
14.4538728
40
0.3941854
50
337.8914027
51
358.9967534
0
ARC
8
DEFAULT_255_1_388
10
5.248025
20
14.5716295
40
0.7213271
50
326.9132501
51
338.3508308
0
ARC
8
DEFAULT_255_1_388
10
4.7996362
20
14.8590105
40
1.2538973
50
319.6471833
51
327.0959558
0
ARC
8
DEFAULT_255_1_388
10
4.368302
20
15.214805
40
1.8129975
50
317.2588228
51
319.9045804
0
ENDSEC
0
EOF