0
SECTION
2
HEADER
9
$MEASUREMENT
70
1
0
ENDSEC
0
SECTION
2
TABLES
0
TABLE
2
LTYPE
0
LTYPE
72
65
70
64
2
CONTINUOUS
3
______
73
0
40
0
0
ENDTAB
0
TABLE
2
LAYER
0
LAYER
2
DEFAULT_255_1_234
70
0
62
255
6
CONTINUOUS
0
LAYER
2
DEFAULT_255_2_778
70
0
62
255
6
CONTINUOUS
0
ENDTAB
0
ENDSEC
0
SECTION
2
ENTITIES
0
LINE
8
DEFAULT_255_1_234
10
3.7039137
20
-0.6668567
11
3.7039137
21
-1.8419
0
LINE
8
DEFAULT_255_1_234
10
3.7039137
20
-1.8419
11
3.5545234
21
-1.8419
0
LINE
8
DEFAULT_255_1_234
10
3.5545234
20
-1.8419
11
3.5545234
21
-0.8515867
0
LINE
8
DEFAULT_255_1_234
10
3.5545234
20
-0.8515867
11
3.2549396
21
-0.9616215
0
LINE
8
DEFAULT_255_1_234
10
3.2549396
20
-0.9616215
11
3.2549396
21
-0.8266883
0
LINE
8
DEFAULT_255_1_234
10
3.2549396
20
-0.8266883
11
3.6806217
21
-0.6668567
0
LINE
8
DEFAULT_255_1_234
10
3.6806217
20
-0.6668567
11
3.7039137
21
-0.6668567
0
LINE
8
DEFAULT_255_1_234
10
3.9735119
20
16.2207792
11
3.9735119
21
16.0995
0
LINE
8
DEFAULT_255_1_234
10
3.9735119
20
16.0995
11
3.207284
21
16.0995
0
LINE
8
DEFAULT_255_1_234
10
3.207284
20
16.0995
11
3.207284
21
16.2063221
0
LINE
8
DEFAULT_255_1_234
10
3.207284
20
16.2063221
11
3.6120836
21
16.6560995
0
LINE
8
DEFAULT_255_1_234
10
3.3333823
20
16.9243595
11
3.1847952
21
16.9243595
0
LINE
8
DEFAULT_255_1_234
10
3.6996296
20
16.5605218
11
3.3863918
21
16.2207792
0
LINE
8
DEFAULT_255_1_234
10
3.3863918
20
16.2207792
11
3.9735119
21
16.2207792
0
ARC
8
DEFAULT_255_1_234
10
2.263067
20
17.8490527
40
1.8008286
50
318.5132453
51
320.7828378
0
ARC
8
DEFAULT_255_1_234
10
2.7917644
20
17.4187426
40
1.1191493
50
320.7372736
51
323.9737074
0
ARC
8
DEFAULT_255_1_234
10
3.1837501
20
17.1347361
40
0.6350923
50
323.8961724
51
328.6421089
0
ARC
8
DEFAULT_255_1_234
10
3.3884096
20
17.0085031
40
0.3946393
50
328.8299013
51
331.789948
0
ARC
8
DEFAULT_255_1_234
10
3.4881274
20
16.9570509
40
0.2824501
50
331.4255242
51
352.9364833
0
ARC
8
DEFAULT_255_1_234
10
3.5017775
20
16.9539976
40
0.2685315
50
353.2248685
51
0.0169286
0
ARC
8
DEFAULT_255_1_234
10
3.5227652
20
16.956295
40
0.2475536
50
359.4866256
51
15.9339782
0
ARC
8
DEFAULT_255_1_234
10
3.5734637
20
16.9699286
40
0.1950618
50
16.1714718
51
43.5284424
0
ARC
8
DEFAULT_255_1_234
10
3.5811946
20
16.9776573
40
0.184134
50
43.4415429
51
83.1661404
0
ARC
8
DEFAULT_255_1_234
10
3.5677864
20
16.9039771
40
0.258926
50
82.160215
51
90.1505798
0
ARC
8
DEFAULT_255_1_234
10
3.5646291
20
16.8502865
40
0.3126255
50
89.5460705
51
102.5418777
0
ARC
8
DEFAULT_255_1_234
10
3.5403377
20
16.9533665
40
0.2067346
50
102.1739365
51
129.2061916
0
ARC
8
DEFAULT_255_1_234
10
3.5324449
20
16.9658094
40
0.1921118
50
129.7279328
51
135.7542026
0
ARC
8
DEFAULT_255_1_234
10
3.5445977
20
16.9561045
40
0.2075944
50
136.175737
51
166.3674722
0
ARC
8
DEFAULT_255_1_234
10
3.6452896
20
16.9291182
40
0.3118201
50
165.9092917
51
178.8683903
0
ARC
8
DEFAULT_255_1_234
10
3.7317757
20
16.9244179
40
0.3983935
50
178.438168
51
180.0083905
0
ARC
8
DEFAULT_255_1_234
10
3.5916359
20
16.9283231
40
0.4068601
50
163.2878735
51
180.5581814
0
ARC
8
DEFAULT_255_1_234
10
3.5114621
20
16.950384
40
0.3237344
50
133.454115
51
162.9470031
0
ARC
8
DEFAULT_255_1_234
10
3.5293162
20
16.9314
40
0.349795
50
100.7869394
51
133.4384016
0
ARC
8
DEFAULT_255_1_234
10
3.5640934
20
16.7765319
40
0.5084616
50
89.6605301
51
101.3704185
0
ARC
8
DEFAULT_255_1_234
10
3.5707273
20
16.7826496
40
0.502348
50
78.2171172
51
90.4130393
0
ARC
8
DEFAULT_255_1_234
10
3.6062351
20
16.9450637
40
0.3361092
50
55.9268222
51
78.4888551
0
ARC
8
DEFAULT_255_1_234
10
3.6258791
20
16.9789324
40
0.2970617
50
47.9292255
51
55.4054003
0
ARC
8
DEFAULT_255_1_234
10
3.6360352
20
16.9892502
40
0.2825983
50
4.3347696
51
48.0560701
0
ARC
8
DEFAULT_255_1_234
10
3.5264745
20
16.9722601
40
0.393225
50
359.925209
51
5.5967654
0
ARC
8
DEFAULT_255_1_234
10
3.5693637
20
16.9778816
40
0.3503892
50
337.8914096
51
358.9967724
0
ARC
8
DEFAULT_255_1_234
10
3.2980049
20
17.0825706
40
0.6412172
50
326.9135351
51
338.3505194
0
ARC
8
DEFAULT_255_1_234
10
2.8994353
20
17.3380284
40
1.1146189
50
319.6472867
51
327.095818
0
ARC
8
DEFAULT_255_1_234
10
2.5161356
20
17.6542
40
1.6114559
50
317.2586784
51
319.9046139
0
LINE
8
DEFAULT_255_2_778
10
8.8635667
20
2.5135665
11
8.8635667
21
13.0968665
0
LINE
8
DEFAULT_255_2_778
10
8.8635667
20
13.0968665
11
3.5718667
21
13.0968665
0
LINE
8
DEFAULT_255_2_778
10
3.5718667
20
13.0968665
11
3.5718667
21
2.5135665
0
LINE
8
DEFAULT_255_2_778
10
3.5718667
20
2.5135665
11
8.8635667
21
2.5135665
0
LINE
8
DEFAULT_255_2_778
10
8.8635667
20
2.5135665
11
8.8635667
21
2.5135665
0
LINE
8
DEFAULT_255_2_778
10
6.2177
20
18.388533
11
6.2177
21
-2.778167
0
LINE
8
DEFAULT_255_2_778
10
5.5562417
20
9.4588875
11
6.8791417
21
9.4588875
0
LINE
8
DEFAULT_255_2_778
10
6.8791417
20
9.4588875
11
6.2177417
21
11.4432875
0
LINE
8
DEFAULT_255_2_778
10
6.2177417
20
11.4432875
11
5.5562417
21
9.4588875
0
LINE
8
DEFAULT_255_2_778
10
4.5810743
20
4.4169058
11
7.8545743
21
8.1509058
0
LINE
8
DEFAULT_255_2_778
10
7.8545743
20
8.1509058
11
6.7019743
21
7.4855058
0
LINE
8
DEFAULT_255_2_778
10
6.7019743
20
7.4855058
11
7.3381743
21
7.0487058
0
LINE
8
DEFAULT_255_2_778
10
7.3381743
20
7.0487058
11
7.8545743
21
8.1509058
0
ARC
8
DEFAULT_255_2_778
10
4.6232112
20
4.8462577
40
0.6790345
50
270.5816681
51
315.004847
0
ARC
8
DEFAULT_255_2_778
10
4.3168246
20
5.1915424
40
1.140166
50
313.6205633
51
326.3426486
0
ARC
8
DEFAULT_255_2_778
10
3.8435793
20
5.5112822
40
1.7112917
50
326.2135321
51
335.1207115
0
ARC
8
DEFAULT_255_2_778
10
3.1606449
20
5.8308422
40
2.4652899
50
335.0605707
51
342.0773514
0
ARC
8
DEFAULT_255_2_778
10
2.2790542
20
6.1178371
40
3.3924175
50
342.0473985
51
348.1372024
0
ARC
8
DEFAULT_255_2_778
10
1.2623813
20
6.3320066
40
4.4314035
50
348.1294549
51
354.2852797
0
ARC
8
DEFAULT_255_2_778
10
0.4992962
20
6.4134604
40
5.1988093
50
354.2294646
51
0.0302845
0
ARC
8
DEFAULT_255_2_778
10
0.6093328
20
6.4231788
40
5.0887766
50
359.921517
51
7.9819996
0
ARC
8
DEFAULT_255_2_778
10
1.6342957
20
6.5657932
40
4.0539403
50
7.9974848
51
14.0225879
0
ARC
8
DEFAULT_255_2_778
10
2.610151
20
6.8098817
40
3.0480217
50
14.0158086
51
20.2056937
0
ARC
8
DEFAULT_255_2_778
10
3.4222169
20
7.1108211
40
2.1819903
50
20.1547895
51
27.7894988
0
ARC
8
DEFAULT_255_2_778
10
4.0334636
20
7.4349675
40
1.490117
50
27.7209318
51
37.6026503
0
ARC
8
DEFAULT_255_2_778
10
4.4323135
20
7.745738
40
0.984501
50
37.4373381
51
52.2725268
0
ARC
8
DEFAULT_255_2_778
10
4.6284205
20
8.0083159
40
0.6568446
50
51.7869928
51
89.8530924
0
ARC
8
DEFAULT_255_2_778
10
7.8119982
20
4.8462577
40
0.6790345
50
224.995153
51
269.4183319
0
ARC
8
DEFAULT_255_2_778
10
8.1183848
20
5.1915424
40
1.140166
50
213.6573514
51
226.3794367
0
ARC
8
DEFAULT_255_2_778
10
8.5916301
20
5.5112822
40
1.7112917
50
204.8792885
51
213.7864679
0
ARC
8
DEFAULT_255_2_778
10
9.2745645
20
5.8308422
40
2.4652899
50
197.9226486
51
204.9394293
0
ARC
8
DEFAULT_255_2_778
10
10.1561552
20
6.1178371
40
3.3924175
50
191.8627976
51
197.9526015
0
ARC
8
DEFAULT_255_2_778
10
11.1728281
20
6.3320066
40
4.4314035
50
185.7147203
51
191.8705451
0
ARC
8
DEFAULT_255_2_778
10
11.9359132
20
6.4134604
40
5.1988093
50
179.9697155
51
185.7705354
0
ARC
8
DEFAULT_255_2_778
10
11.8258766
20
6.4231788
40
5.0887766
50
172.0180004
51
180.078483
0
ARC
8
DEFAULT_255_2_778
10
10.8009137
20
6.5657932
40
4.0539403
50
165.9774121
51
172.0025152
0
ARC
8
DEFAULT_255_2_778
10
9.8250584
20
6.8098817
40
3.0480217
50
159.7943063
51
165.9841914
0
ARC
8
DEFAULT_255_2_778
10
9.0129925
20
7.1108211
40
2.1819903
50
152.2105012
51
159.8452105
0
ARC
8
DEFAULT_255_2_778
10
8.4017458
20
7.4349675
40
1.490117
50
142.3973497
51
152.2790682
0
ARC
8
DEFAULT_255_2_778
10
8.0028959
20
7.745738
40
0.984501
50
127.7274732
51
142.5626619
0
ARC
8
DEFAULT_255_2_778
10
7.8067889
20
8.0083159
40
0.6568446
50
90.1469076
51
128.2130072
0
ENDSEC
0
EOF