0
SECTION
2
HEADER
9
$MEASUREMENT
70
1
0
ENDSEC
0
SECTION
2
TABLES
0
TABLE
2
LTYPE
0
LTYPE
72
65
70
64
2
CONTINUOUS
3
______
73
0
40
0
0
ENDTAB
0
TABLE
2
LAYER
0
LAYER
2
DEFAULT_255_2_778
70
0
62
255
6
CONTINUOUS
0
LAYER
2
DEFAULT_255_1_388
70
0
62
255
6
CONTINUOUS
0
ENDTAB
0
ENDSEC
0
SECTION
2
ENTITIES
0
LINE
8
DEFAULT_255_2_778
10
14.1551335
20
2.5134831
11
14.1551335
21
15.7426831
0
LINE
8
DEFAULT_255_2_778
10
14.1551335
20
15.7426831
11
3.5718335
21
15.7426831
0
LINE
8
DEFAULT_255_2_778
10
3.5718335
20
15.7426831
11
3.5718335
21
2.5134831
0
LINE
8
DEFAULT_255_2_778
10
3.5718335
20
2.5134831
11
14.1551335
21
2.5134831
0
LINE
8
DEFAULT_255_2_778
10
14.1551335
20
2.5134831
11
14.1551335
21
2.5134831
0
LINE
8
DEFAULT_255_2_778
10
11.5094
20
8.202104
11
11.5094
21
-2.778096
0
ARC
8
DEFAULT_255_2_778
10
11.5079557
20
5.8222443
40
0.6600157
50
89.871003
51
180.128997
0
ARC
8
DEFAULT_255_2_778
10
11.510849
20
5.8222655
40
0.6599943
50
359.8691577
51
90.1221758
0
ARC
8
DEFAULT_255_2_778
10
11.5108705
20
5.8193295
40
0.6599728
50
269.8759594
51
0.1240406
0
ARC
8
DEFAULT_255_2_778
10
11.5079345
20
5.8193508
40
0.6599942
50
179.8778094
51
270.1308423
0
LINE
8
DEFAULT_255_2_778
10
10.8479417
20
5.8207583
11
10.8479417
21
5.8207583
0
ARC
8
DEFAULT_255_2_778
10
6.2150332
20
10.0902135
40
1.3202532
50
148.7968675
51
180.1300552
0
ARC
8
DEFAULT_255_2_778
10
6.2141736
20
10.0906468
40
1.3192936
50
97.5665172
51
148.7936255
0
ARC
8
DEFAULT_255_2_778
10
6.217279
20
10.0639258
40
1.3461909
50
89.9827905
51
97.547783
0
ARC
8
DEFAULT_255_2_778
10
6.2206802
20
10.0898668
40
1.3202532
50
58.7968675
51
90.1300552
0
ARC
8
DEFAULT_255_2_778
10
6.2211136
20
10.0907264
40
1.3192936
50
7.5665172
51
58.7936255
0
ARC
8
DEFAULT_255_2_778
10
6.1943926
20
10.087621
40
1.3461909
50
359.9827905
51
7.547783
0
ARC
8
DEFAULT_255_2_778
10
6.2203335
20
10.0842198
40
1.3202532
50
328.7968675
51
0.1300552
0
ARC
8
DEFAULT_255_2_778
10
6.2211931
20
10.0837864
40
1.3192936
50
277.5665172
51
328.7936255
0
ARC
8
DEFAULT_255_2_778
10
6.2180877
20
10.1105074
40
1.3461909
50
269.9827905
51
277.547783
0
ARC
8
DEFAULT_255_2_778
10
6.2146865
20
10.0845665
40
1.3202532
50
238.7968675
51
270.1300552
0
ARC
8
DEFAULT_255_2_778
10
6.2142532
20
10.0837069
40
1.3192936
50
187.5665172
51
238.7936255
0
ARC
8
DEFAULT_255_2_778
10
6.2409742
20
10.0868123
40
1.3461909
50
179.9827905
51
187.547783
0
LINE
8
DEFAULT_255_2_778
10
4.8947834
20
10.0872166
11
4.8947834
21
10.0872166
0
LINE
8
DEFAULT_255_2_778
10
4.2333251
20
10.1533875
11
6.2177251
21
8.1689875
0
LINE
8
DEFAULT_255_2_778
10
6.2177251
20
8.1689875
11
8.2020251
21
10.1533875
0
LINE
8
DEFAULT_255_2_778
10
6.2177
20
8.202104
11
6.2177
21
-2.778096
0
ARC
8
DEFAULT_255_2_778
10
11.5067332
20
10.0902135
40
1.3202532
50
148.7968675
51
180.1300552
0
ARC
8
DEFAULT_255_2_778
10
11.5058736
20
10.0906468
40
1.3192936
50
97.5665172
51
148.7936255
0
ARC
8
DEFAULT_255_2_778
10
11.508979
20
10.0639258
40
1.3461909
50
89.9827905
51
97.547783
0
ARC
8
DEFAULT_255_2_778
10
11.5123802
20
10.0898668
40
1.3202532
50
58.7968675
51
90.1300552
0
ARC
8
DEFAULT_255_2_778
10
11.5128136
20
10.0907264
40
1.3192936
50
7.5665172
51
58.7936255
0
ARC
8
DEFAULT_255_2_778
10
11.4860926
20
10.087621
40
1.3461909
50
359.9827905
51
7.547783
0
ARC
8
DEFAULT_255_2_778
10
11.5120335
20
10.0842198
40
1.3202532
50
328.7968675
51
0.1300552
0
ARC
8
DEFAULT_255_2_778
10
11.5128931
20
10.0837864
40
1.3192936
50
277.5665172
51
328.7936255
0
ARC
8
DEFAULT_255_2_778
10
11.5097877
20
10.1105074
40
1.3461909
50
269.9827905
51
277.547783
0
ARC
8
DEFAULT_255_2_778
10
11.5063865
20
10.0845665
40
1.3202532
50
238.7968675
51
270.1300552
0
ARC
8
DEFAULT_255_2_778
10
11.5059532
20
10.0837069
40
1.3192936
50
187.5665172
51
238.7936255
0
ARC
8
DEFAULT_255_2_778
10
11.5326742
20
10.0868123
40
1.3461909
50
179.9827905
51
187.547783
0
LINE
8
DEFAULT_255_2_778
10
10.1864834
20
10.0872166
11
10.1864834
21
10.0872166
0
LINE
8
DEFAULT_255_2_778
10
9.5250251
20
10.1533875
11
11.5094251
21
8.1689875
0
LINE
8
DEFAULT_255_2_778
10
11.5094251
20
8.1689875
11
13.4937251
21
10.1533875
0
LINE
8
DEFAULT_255_2_778
10
11.5094
20
21.0343728
11
11.5094
21
11.4432728
0
LINE
8
DEFAULT_255_2_778
10
6.2177
20
21.0343728
11
6.2177
21
11.4432728
0
ARC
8
DEFAULT_255_2_778
10
6.2162557
20
5.8222443
40
0.6600157
50
89.871003
51
180.128997
0
ARC
8
DEFAULT_255_2_778
10
6.219149
20
5.8222655
40
0.6599943
50
359.8691577
51
90.1221758
0
ARC
8
DEFAULT_255_2_778
10
6.2191705
20
5.8193295
40
0.6599728
50
269.8759594
51
0.1240406
0
ARC
8
DEFAULT_255_2_778
10
6.2162345
20
5.8193508
40
0.6599942
50
179.8778094
51
270.1308423
0
LINE
8
DEFAULT_255_2_778
10
5.5562417
20
5.8207583
11
5.5562417
21
5.8207583
0
LINE
8
DEFAULT_255_2_778
10
6.2177063
20
5.8208645
11
7.5406063
21
5.8208645
0
LINE
8
DEFAULT_255_2_778
10
7.5406063
20
5.8208645
11
10.3849063
21
9.3265645
0
LINE
8
DEFAULT_255_2_778
10
11.5094063
20
5.8208645
11
10.1865063
21
5.8208645
0
LINE
8
DEFAULT_255_2_778
10
10.1865063
20
5.8208645
11
7.3422063
21
9.3265645
0
LINE
8
DEFAULT_255_1_388
10
3.7289985
20
-0.5073852
11
3.7289985
21
-1.8293
0
LINE
8
DEFAULT_255_1_388
10
3.7289985
20
-1.8293
11
3.5609355
21
-1.8293
0
LINE
8
DEFAULT_255_1_388
10
3.5609355
20
-1.8293
11
3.5609355
21
-0.715205
0
LINE
8
DEFAULT_255_1_388
10
3.5609355
20
-0.715205
11
3.223906
21
-0.8389934
0
LINE
8
DEFAULT_255_1_388
10
3.223906
20
-0.8389934
11
3.223906
21
-0.6871945
0
LINE
8
DEFAULT_255_1_388
10
3.223906
20
-0.6871945
11
3.7027951
21
-0.5073852
0
LINE
8
DEFAULT_255_1_388
10
3.7027951
20
-0.5073852
11
3.7289985
21
-0.5073852
0
LINE
8
DEFAULT_255_1_388
10
4.4617893
20
-1.2266225
11
4.4617893
21
-1.0901843
0
LINE
8
DEFAULT_255_1_388
10
4.4617893
20
-1.0901843
11
4.5873847
21
-1.0901843
0
LINE
8
DEFAULT_255_1_388
10
4.3732399
20
-0.8588718
11
4.2060805
21
-0.8588718
0
LINE
8
DEFAULT_255_1_388
10
4.1943342
20
-1.4823312
11
4.3623972
21
-1.4823312
0
LINE
8
DEFAULT_255_1_388
10
4.5873847
20
-1.2266225
11
4.4617893
21
-1.2266225
0
ARC
8
DEFAULT_255_1_388
10
4.5841074
20
-0.7085078
40
0.3816905
50
270.491971
51
281.8953028
0
ARC
8
DEFAULT_255_1_388
10
4.6112501
20
-0.8324801
40
0.2547877
50
281.6690378
51
301.2943765
0
ARC
8
DEFAULT_255_1_388
10
4.6303952
20
-0.8675074
40
0.2149197
50
301.7834992
51
311.754567
0
ARC
8
DEFAULT_255_1_388
10
4.6406993
20
-0.878935
40
0.1995326
50
311.7325027
51
354.2803031
0
ARC
8
DEFAULT_255_1_388
10
4.5589409
20
-0.864872
40
0.2823461
50
353.0941646
51
0.1174696
0
ARC
8
DEFAULT_255_1_388
10
4.5070967
20
-0.8595126
40
0.3342238
50
359.1804452
51
15.0452323
0
ARC
8
DEFAULT_255_1_388
10
4.6585026
20
-0.8153454
40
0.1765747
50
13.957816
51
77.6713812
0
ARC
8
DEFAULT_255_1_388
10
4.6150261
20
-0.9711536
40
0.3381982
50
76.111571
51
90.7028736
0
ARC
8
DEFAULT_255_1_388
10
4.6083673
20
-0.940375
40
0.3074046
50
89.5321574
51
103.5319393
0
ARC
8
DEFAULT_255_1_388
10
4.5858057
20
-0.8504557
40
0.2147041
50
103.2930114
51
133.5619756
0
ARC
8
DEFAULT_255_1_388
10
4.5807999
20
-0.8437649
40
0.2064084
50
133.8349761
51
173.5343225
0
ARC
8
DEFAULT_255_1_388
10
4.6621656
20
-0.8581856
40
0.2889266
50
172.5097183
51
180.1360699
0
ARC
8
DEFAULT_255_1_388
10
4.555142
20
-0.854312
40
0.3490913
50
155.3483706
51
180.7484035
0
ARC
8
DEFAULT_255_1_388
10
4.5496396
20
-0.8575481
40
0.3454798
50
131.5745177
51
154.4799474
0
ARC
8
DEFAULT_255_1_388
10
4.5848678
20
-0.8931578
40
0.3955058
50
96.9874487
51
131.9690874
0
ARC
8
DEFAULT_255_1_388
10
4.6095571
20
-1.0332593
40
0.537622
50
89.8592909
51
97.7827481
0
ARC
8
DEFAULT_255_1_388
10
4.614968
20
-1.062764
40
0.5671399
50
78.3654493
51
90.4132586
0
ARC
8
DEFAULT_255_1_388
10
4.6552321
20
-0.8761082
40
0.3762034
50
56.6229818
51
78.6387103
0
ARC
8
DEFAULT_255_1_388
10
4.679415
20
-0.8338154
40
0.3275964
50
47.0254604
51
56.085558
0
ARC
8
DEFAULT_255_1_388
10
4.6816401
20
-0.8293811
40
0.3228382
50
10.9207523
51
46.777927
0
ARC
8
DEFAULT_255_1_388
10
4.5281995
20
-0.8648599
40
0.4802559
50
359.6364235
51
11.6087615
0
ARC
8
DEFAULT_255_1_388
10
4.7346161
20
-0.8665596
40
0.273833
50
332.3549969
51
359.7179765
0
ARC
8
DEFAULT_255_1_388
10
4.6614562
20
-0.8318715
40
0.3547505
50
325.2332381
51
332.8746682
0
ARC
8
DEFAULT_255_1_388
10
4.6786144
20
-0.8438237
40
0.3338396
50
292.9803892
51
325.2391113
0
ARC
8
DEFAULT_255_1_388
10
4.647534
20
-0.7833321
40
0.4016959
50
292.542178
51
293.6931461
0
ARC
8
DEFAULT_255_1_388
10
4.6918912
20
-1.5098964
40
0.372079
50
57.643292
51
72.8626085
0
ARC
8
DEFAULT_255_1_388
10
4.7317747
20
-1.4452727
40
0.2961455
50
36.7246661
51
57.4701329
0
ARC
8
DEFAULT_255_1_388
10
4.7304903
20
-1.443853
40
0.2963321
50
8.054535
51
36.3561529
0
ARC
8
DEFAULT_255_1_388
10
4.6334576
20
-1.4612927
40
0.3948682
50
359.8316595
51
8.5873361
0
ARC
8
DEFAULT_255_1_388
10
4.591205
20
-1.466703
40
0.4371398
50
343.9831631
51
0.557075
0
ARC
8
DEFAULT_255_1_388
10
4.69091
20
-1.4940037
40
0.3337749
50
311.6358204
51
343.7652116
0
ARC
8
DEFAULT_255_1_388
10
4.6483353
20
-1.4460045
40
0.3979351
50
279.7829743
51
311.625622
0
ARC
8
DEFAULT_255_1_388
10
4.6144489
20
-1.2843358
40
0.5630417
50
269.7285092
51
280.3857694
0
ARC
8
DEFAULT_255_1_388
10
4.6074802
20
-1.2889759
40
0.5584119
50
256.6827433
51
270.4412869
0
ARC
8
DEFAULT_255_1_388
10
4.5693788
20
-1.4447302
40
0.3980715
50
229.4223821
51
256.8554507
0
ARC
8
DEFAULT_255_1_388
10
4.5227342
20
-1.4972317
40
0.3278564
50
181.8183354
51
229.6455015
0
ARC
8
DEFAULT_255_1_388
10
4.6396951
20
-1.4825175
40
0.4453611
50
179.9760419
51
183.2330638
0
ARC
8
DEFAULT_255_1_388
10
4.6203503
20
-1.4848219
40
0.2579652
50
179.4467996
51
196.2871626
0
ARC
8
DEFAULT_255_1_388
10
4.5654957
20
-1.4998291
40
0.2011057
50
196.5661293
51
227.7059371
0
ARC
8
DEFAULT_255_1_388
10
4.5839564
20
-1.4791845
40
0.2287994
50
227.7653015
51
257.8763321
0
ARC
8
DEFAULT_255_1_388
10
4.6092647
20
-1.3731039
40
0.3378385
50
257.4583525
51
270.4267406
0
ARC
8
DEFAULT_255_1_388
10
4.6143897
20
-1.340477
40
0.3704652
50
269.5965319
51
280.8788143
0
ARC
8
DEFAULT_255_1_388
10
4.6402125
20
-1.4694471
40
0.2389415
50
280.6347277
51
299.8594068
0
ARC
8
DEFAULT_255_1_388
10
4.6616895
20
-1.5102264
40
0.19289
50
300.3575552
51
314.5515667
0
ARC
8
DEFAULT_255_1_388
10
4.652357
20
-1.5033975
40
0.204312
50
315.0730962
51
345.0429362
0
ARC
8
DEFAULT_255_1_388
10
4.5485078
20
-1.4731461
40
0.31246
50
344.598526
51
357.9270698
0
ARC
8
DEFAULT_255_1_388
10
4.4475383
20
-1.4662295
40
0.4136265
50
357.4755098
51
0.0224936
0
ARC
8
DEFAULT_255_1_388
10
4.562826
20
-1.4634901
40
0.2983498
50
359.5051035
51
13.4236939
0
ARC
8
DEFAULT_255_1_388
10
4.660335
20
-1.4385363
40
0.1977186
50
12.9497905
51
48.7550905
0
ARC
8
DEFAULT_255_1_388
10
4.6398272
20
-1.4665627
40
0.2323321
50
49.509109
51
72.1832965
0
ARC
8
DEFAULT_255_1_388
10
4.599574
20
-1.5860368
40
0.358397
50
71.9008458
51
84.3555134
0
ARC
8
DEFAULT_255_1_388
10
4.5814135
20
-1.7392288
40
0.512641
50
84.019632
51
89.3326067
0
LINE
8
DEFAULT_255_1_388
10
4.2979318
20
18.8922382
11
4.2979318
21
18.7558
0
LINE
8
DEFAULT_255_1_388
10
4.2979318
20
18.7558
11
3.4359313
21
18.7558
0
LINE
8
DEFAULT_255_1_388
10
3.4359313
20
18.7558
11
3.4359313
21
18.8759741
0
LINE
8
DEFAULT_255_1_388
10
3.4359313
20
18.8759741
11
3.8913278
21
19.3819702
0
LINE
8
DEFAULT_255_1_388
10
3.5777909
20
19.6837607
11
3.4106315
21
19.6837607
0
LINE
8
DEFAULT_255_1_388
10
3.9898163
20
19.274446
11
3.6374262
21
18.8922382
0
LINE
8
DEFAULT_255_1_388
10
3.6374262
20
18.8922382
11
4.2979318
21
18.8922382
0
ARC
8
DEFAULT_255_1_388
10
2.3737337
20
20.7239983
40
2.0258655
50
318.5132526
51
320.7829045
0
ARC
8
DEFAULT_255_1_388
10
2.9685294
20
20.2398929
40
1.2589638
50
320.7372878
51
323.9739031
0
ARC
8
DEFAULT_255_1_388
10
3.4094226
20
19.9204554
40
0.7145141
50
323.8962701
51
328.64194
0
ARC
8
DEFAULT_255_1_388
10
3.6396484
20
19.7784545
40
0.4440242
50
328.8294576
51
331.7891185
0
ARC
8
DEFAULT_255_1_388
10
3.7518804
20
19.7205374
40
0.3177517
50
331.4254512
51
352.9365785
0
ARC
8
DEFAULT_255_1_388
10
3.7671804
20
19.717105
40
0.3021496
50
353.2257659
51
0.0166158
0
ARC
8
DEFAULT_255_1_388
10
3.7908564
20
19.7196894
40
0.2784847
50
359.486299
51
15.9343185
0
ARC
8
DEFAULT_255_1_388
10
3.8478831
20
19.7350269
40
0.2194403
50
16.1712913
51
43.5286088
0
ARC
8
DEFAULT_255_1_388
10
3.8565776
20
19.7437191
40
0.2071504
50
43.4417391
51
83.1661095
0
ARC
8
DEFAULT_255_1_388
10
3.8414937
20
19.6608316
40
0.2912888
50
82.160179
51
90.1505708
0
ARC
8
DEFAULT_255_1_388
10
3.8379418
20
19.6004279
40
0.3517025
50
89.5460741
51
102.5418361
0
ARC
8
DEFAULT_255_1_388
10
3.8106138
20
19.7163933
40
0.2325748
50
102.1738499
51
129.206123
0
ARC
8
DEFAULT_255_1_388
10
3.8017592
20
19.7303664
40
0.2161591
50
129.72865
51
135.753947
0
ARC
8
DEFAULT_255_1_388
10
3.8154074
20
19.7194728
40
0.2335433
50
136.1757367
51
166.3673339
0
ARC
8
DEFAULT_255_1_388
10
3.9286762
20
19.6891148
40
0.3507873
50
165.9090694
51
178.8684636
0
ARC
8
DEFAULT_255_1_388
10
4.0262534
20
19.6838263
40
0.4484624
50
178.4391136
51
180.0083808
0
ARC
8
DEFAULT_255_1_388
10
3.8683235
20
19.6882197
40
0.4577138
50
163.2878482
51
180.5581842
0
ARC
8
DEFAULT_255_1_388
10
3.7781276
20
19.7130393
40
0.3641968
50
133.4540601
51
162.947111
0
ARC
8
DEFAULT_255_1_388
10
3.7982158
20
19.6916789
40
0.3935189
50
100.7869829
51
133.4382499
0
ARC
8
DEFAULT_255_1_388
10
3.8373403
20
19.5174399
40
0.5720313
50
89.660664
51
101.3702276
0
ARC
8
DEFAULT_255_1_388
10
3.8448012
20
19.5243263
40
0.5651495
50
78.2172678
51
90.412935
0
ARC
8
DEFAULT_255_1_388
10
3.8847478
20
19.7070511
40
0.378122
50
55.9269121
51
78.4888449
0
ARC
8
DEFAULT_255_1_388
10
3.9068193
20
19.7451187
40
0.3342379
50
47.929771
51
55.4049217
0
ARC
8
DEFAULT_255_1_388
10
3.9182723
20
19.7567618
40
0.3179217
50
4.334829
51
48.0560205
0
ARC
8
DEFAULT_255_1_388
10
3.7950525
20
19.7376487
40
0.442341
50
359.9251713
51
5.5971671
0
ARC
8
DEFAULT_255_1_388
10
3.843268
20
19.7439728
40
0.3941854
50
337.8914027
51
358.9967534
0
ARC
8
DEFAULT_255_1_388
10
3.538025
20
19.8617295
40
0.7213271
50
326.9132501
51
338.3508308
0
ARC
8
DEFAULT_255_1_388
10
3.0896362
20
20.1491105
40
1.2538973
50
319.6471833
51
327.0959558
0
ARC
8
DEFAULT_255_1_388
10
2.658302
20
20.504905
40
1.8129975
50
317.2588228
51
319.9045804
0
LINE
8
DEFAULT_255_1_388
10
5.1807143
20
20.0713898
11
5.1807143
21
19.197643
0
LINE
8
DEFAULT_255_1_388
10
5.1807143
20
19.197643
11
5.3632343
21
19.197643
0
LINE
8
DEFAULT_255_1_388
10
5.3632343
20
19.197643
11
5.3632343
21
19.0612048
0
LINE
8
DEFAULT_255_1_388
10
5.3632343
20
19.0612048
11
5.1807143
21
19.0612048
0
LINE
8
DEFAULT_255_1_388
10
5.1807143
20
19.0612048
11
5.1807143
21
18.7558
0
LINE
8
DEFAULT_255_1_388
10
5.1807143
20
18.7558
11
5.0126513
21
18.7558
0
LINE
8
DEFAULT_255_1_388
10
5.0126513
20
18.7558
11
5.0126513
21
19.0612048
0
LINE
8
DEFAULT_255_1_388
10
5.0126513
20
19.0612048
11
4.413588
21
19.0612048
0
LINE
8
DEFAULT_255_1_388
10
4.413588
20
19.0612048
11
4.413588
21
19.1596933
0
LINE
8
DEFAULT_255_1_388
10
4.413588
20
19.1596933
11
5.0027121
21
20.0713898
0
LINE
8
DEFAULT_255_1_388
10
5.0027121
20
20.0713898
11
5.1807143
21
20.0713898
0
LINE
8
DEFAULT_255_1_388
10
4.9927729
20
19.8066455
11
4.6033366
21
19.197643
0
LINE
8
DEFAULT_255_1_388
10
4.6033366
20
19.197643
11
5.0126513
21
19.197643
0
LINE
8
DEFAULT_255_1_388
10
5.0126513
20
19.197643
11
5.0126513
21
19.842788
0
LINE
8
DEFAULT_255_1_388
10
5.0126513
20
19.842788
11
4.9927729
21
19.8066455
0
ENDSEC
0
EOF