0
SECTION
2
HEADER
9
$MEASUREMENT
70
1
0
ENDSEC
0
SECTION
2
TABLES
0
TABLE
2
LTYPE
0
LTYPE
72
65
70
64
2
CONTINUOUS
3
______
73
0
40
0
0
ENDTAB
0
TABLE
2
LAYER
0
LAYER
2
DEFAULT_255_2_778
70
0
62
255
6
CONTINUOUS
0
LAYER
2
DEFAULT_255_1_388
70
0
62
255
6
CONTINUOUS
0
ENDTAB
0
ENDSEC
0
SECTION
2
ENTITIES
0
LINE
8
DEFAULT_255_2_778
10
9.3924002
20
10.4510499
11
25.2674002
21
10.4510499
0
LINE
8
DEFAULT_255_2_778
10
25.2674002
20
10.4510499
11
25.2674002
21
2.5135499
0
LINE
8
DEFAULT_255_2_778
10
25.2674002
20
2.5135499
11
9.3924002
21
2.5135499
0
LINE
8
DEFAULT_255_2_778
10
9.3924002
20
2.5135499
11
9.3924002
21
10.4510499
0
LINE
8
DEFAULT_255_2_778
10
17.3299
20
10.4510499
11
17.3299
21
2.5135499
0
LINE
8
DEFAULT_255_2_778
10
12.0382834
20
10.4510499
11
14.6840834
21
2.5135499
0
LINE
8
DEFAULT_255_2_778
10
14.6840834
20
2.5135499
11
14.6840834
21
4.6302499
0
LINE
8
DEFAULT_255_2_778
10
14.6840834
20
4.6302499
11
13.3611834
21
4.1010499
0
LINE
8
DEFAULT_255_2_778
10
13.3611834
20
4.1010499
11
14.6840834
21
2.5135499
0
LINE
8
DEFAULT_255_2_778
10
12.0383
20
2.5135166
11
12.0383
21
5.1593166
0
LINE
8
DEFAULT_255_2_778
10
11.3768417
20
5.1593
11
12.6997417
21
5.1593
0
LINE
8
DEFAULT_255_2_778
10
19.9758417
20
2.5135499
11
19.9758417
21
10.4510499
0
LINE
8
DEFAULT_255_2_778
10
19.9758417
20
10.4510499
11
19.3143417
21
8.4666499
0
LINE
8
DEFAULT_255_2_778
10
19.3143417
20
8.4666499
11
20.6372417
21
8.4666499
0
LINE
8
DEFAULT_255_2_778
10
20.6372417
20
8.4666499
11
19.9758417
21
10.4510499
0
LINE
8
DEFAULT_255_2_778
10
22.6216
20
2.5135166
11
22.6216
21
5.1593166
0
LINE
8
DEFAULT_255_2_778
10
21.9601417
20
5.1593
11
23.2830417
21
5.1593
0
LINE
8
DEFAULT_255_2_778
10
19.9758
20
10.4509333
11
19.9758
21
15.7426333
0
LINE
8
DEFAULT_255_2_778
10
19.9758
20
2.5135333
11
19.9758
21
-2.7781667
0
LINE
8
DEFAULT_255_2_778
10
22.6216
20
2.5135333
11
22.6216
21
-2.7781667
0
LINE
8
DEFAULT_255_2_778
10
4.1007834
20
5.6885
11
6.7465834
21
5.6885
0
LINE
8
DEFAULT_255_2_778
10
6.7465834
20
5.6885
11
6.7465834
21
2.5135
0
LINE
8
DEFAULT_255_2_778
10
6.7465834
20
2.5135
11
4.1007834
21
2.5135
0
LINE
8
DEFAULT_255_2_778
10
4.1007834
20
2.5135
11
4.1007834
21
5.6885
0
LINE
8
DEFAULT_255_2_778
10
4.7622417
20
2.5135
11
6.0851417
21
5.6885
0
LINE
8
DEFAULT_255_2_778
10
25.2674188
20
3.7835
11
25.5614188
21
5.6885
0
LINE
8
DEFAULT_255_2_778
10
25.5614188
20
5.6885
11
26.0024188
21
2.5135
0
LINE
8
DEFAULT_255_2_778
10
26.0024188
20
2.5135
11
26.4435188
21
5.6885
0
LINE
8
DEFAULT_255_2_778
10
26.4435188
20
5.6885
11
26.8845188
21
2.5135
0
LINE
8
DEFAULT_255_2_778
10
26.8845188
20
2.5135
11
27.3256188
21
5.6885
0
LINE
8
DEFAULT_255_2_778
10
27.3256188
20
5.6885
11
27.7667188
21
2.5135
0
LINE
8
DEFAULT_255_2_778
10
27.7667188
20
2.5135
11
27.9138188
21
3.7835
0
LINE
8
DEFAULT_255_2_778
10
6.7465834
20
9.1280916
11
9.3923834
21
9.1280916
0
LINE
8
DEFAULT_255_2_778
10
9.3923834
20
9.1280916
11
9.3923834
21
2.5134916
0
LINE
8
DEFAULT_255_2_778
10
9.3923834
20
2.5134916
11
6.7465834
21
2.5134916
0
LINE
8
DEFAULT_255_2_778
10
6.7465834
20
2.5134916
11
6.7465834
21
9.1280916
0
LINE
8
DEFAULT_255_2_778
10
6.74665
20
9.1280916
11
8.33415
21
5.6884916
0
LINE
8
DEFAULT_255_2_778
10
8.33415
20
5.6884916
11
6.74665
21
2.5134916
0
LINE
8
DEFAULT_255_2_778
10
4.1008
20
9.9218
11
4.1008
21
6.7468
0
LINE
8
DEFAULT_255_2_778
10
4.1007834
20
9.1281
11
6.7465834
21
9.1281
0
LINE
8
DEFAULT_255_2_778
10
4.1007834
20
7.5406
11
6.7465834
21
7.5406
0
LINE
8
DEFAULT_255_1_388
10
17.4868985
20
-0.5089852
11
17.4868985
21
-1.8309
0
LINE
8
DEFAULT_255_1_388
10
17.4868985
20
-1.8309
11
17.3188355
21
-1.8309
0
LINE
8
DEFAULT_255_1_388
10
17.3188355
20
-1.8309
11
17.3188355
21
-0.716805
0
LINE
8
DEFAULT_255_1_388
10
17.3188355
20
-0.716805
11
16.981806
21
-0.8405934
0
LINE
8
DEFAULT_255_1_388
10
16.981806
20
-0.8405934
11
16.981806
21
-0.6887945
0
LINE
8
DEFAULT_255_1_388
10
16.981806
20
-0.6887945
11
17.4606951
21
-0.5089852
0
LINE
8
DEFAULT_255_1_388
10
17.4606951
20
-0.5089852
11
17.4868985
21
-0.5089852
0
LINE
8
DEFAULT_255_1_388
10
18.2196893
20
-1.2282225
11
18.2196893
21
-1.0917843
0
LINE
8
DEFAULT_255_1_388
10
18.2196893
20
-1.0917843
11
18.3452847
21
-1.0917843
0
LINE
8
DEFAULT_255_1_388
10
18.1311399
20
-0.8604718
11
17.9639805
21
-0.8604718
0
LINE
8
DEFAULT_255_1_388
10
17.9522342
20
-1.4839312
11
18.1202972
21
-1.4839312
0
LINE
8
DEFAULT_255_1_388
10
18.3452847
20
-1.2282225
11
18.2196893
21
-1.2282225
0
ARC
8
DEFAULT_255_1_388
10
18.3420074
20
-0.7101078
40
0.3816905
50
270.491971
51
281.8953028
0
ARC
8
DEFAULT_255_1_388
10
18.3691501
20
-0.8340801
40
0.2547877
50
281.6690378
51
301.2943765
0
ARC
8
DEFAULT_255_1_388
10
18.3882952
20
-0.8691074
40
0.2149197
50
301.7834992
51
311.754567
0
ARC
8
DEFAULT_255_1_388
10
18.3985993
20
-0.880535
40
0.1995326
50
311.7325027
51
354.2803031
0
ARC
8
DEFAULT_255_1_388
10
18.3168409
20
-0.866472
40
0.2823461
50
353.0941646
51
0.1174696
0
ARC
8
DEFAULT_255_1_388
10
18.2649967
20
-0.8611126
40
0.3342238
50
359.1804452
51
15.0452323
0
ARC
8
DEFAULT_255_1_388
10
18.4164026
20
-0.8169454
40
0.1765747
50
13.957816
51
77.6713812
0
ARC
8
DEFAULT_255_1_388
10
18.3729261
20
-0.9727536
40
0.3381982
50
76.111571
51
90.7028736
0
ARC
8
DEFAULT_255_1_388
10
18.3662673
20
-0.941975
40
0.3074046
50
89.5321574
51
103.5319393
0
ARC
8
DEFAULT_255_1_388
10
18.3437057
20
-0.8520557
40
0.2147041
50
103.2930114
51
133.5619756
0
ARC
8
DEFAULT_255_1_388
10
18.3386999
20
-0.8453649
40
0.2064084
50
133.8349761
51
173.5343225
0
ARC
8
DEFAULT_255_1_388
10
18.4200656
20
-0.8597856
40
0.2889266
50
172.5097183
51
180.1360699
0
ARC
8
DEFAULT_255_1_388
10
18.313042
20
-0.855912
40
0.3490913
50
155.3483706
51
180.7484035
0
ARC
8
DEFAULT_255_1_388
10
18.3075396
20
-0.8591481
40
0.3454798
50
131.5745177
51
154.4799474
0
ARC
8
DEFAULT_255_1_388
10
18.3427678
20
-0.8947578
40
0.3955058
50
96.9874487
51
131.9690874
0
ARC
8
DEFAULT_255_1_388
10
18.3674571
20
-1.0348593
40
0.537622
50
89.8592909
51
97.7827481
0
ARC
8
DEFAULT_255_1_388
10
18.372868
20
-1.064364
40
0.5671399
50
78.3654493
51
90.4132586
0
ARC
8
DEFAULT_255_1_388
10
18.4131321
20
-0.8777082
40
0.3762034
50
56.6229818
51
78.6387103
0
ARC
8
DEFAULT_255_1_388
10
18.437315
20
-0.8354154
40
0.3275964
50
47.0254604
51
56.085558
0
ARC
8
DEFAULT_255_1_388
10
18.4395401
20
-0.8309811
40
0.3228382
50
10.9207523
51
46.777927
0
ARC
8
DEFAULT_255_1_388
10
18.2860995
20
-0.8664599
40
0.4802559
50
359.6364235
51
11.6087615
0
ARC
8
DEFAULT_255_1_388
10
18.4925161
20
-0.8681596
40
0.273833
50
332.3549969
51
359.7179765
0
ARC
8
DEFAULT_255_1_388
10
18.4193562
20
-0.8334715
40
0.3547505
50
325.2332381
51
332.8746682
0
ARC
8
DEFAULT_255_1_388
10
18.4365144
20
-0.8454237
40
0.3338396
50
292.9803892
51
325.2391113
0
ARC
8
DEFAULT_255_1_388
10
18.405434
20
-0.7849321
40
0.4016959
50
292.542178
51
293.6931461
0
ARC
8
DEFAULT_255_1_388
10
18.4497912
20
-1.5114964
40
0.372079
50
57.643292
51
72.8626085
0
ARC
8
DEFAULT_255_1_388
10
18.4896747
20
-1.4468727
40
0.2961455
50
36.7246661
51
57.4701329
0
ARC
8
DEFAULT_255_1_388
10
18.4883903
20
-1.445453
40
0.2963321
50
8.054535
51
36.3561529
0
ARC
8
DEFAULT_255_1_388
10
18.3913576
20
-1.4628927
40
0.3948682
50
359.8316595
51
8.5873361
0
ARC
8
DEFAULT_255_1_388
10
18.349105
20
-1.468303
40
0.4371398
50
343.9831631
51
0.557075
0
ARC
8
DEFAULT_255_1_388
10
18.44881
20
-1.4956037
40
0.3337749
50
311.6358204
51
343.7652116
0
ARC
8
DEFAULT_255_1_388
10
18.4062353
20
-1.4476045
40
0.3979351
50
279.7829743
51
311.625622
0
ARC
8
DEFAULT_255_1_388
10
18.3723489
20
-1.2859358
40
0.5630417
50
269.7285092
51
280.3857694
0
ARC
8
DEFAULT_255_1_388
10
18.3653802
20
-1.2905759
40
0.5584119
50
256.6827433
51
270.4412869
0
ARC
8
DEFAULT_255_1_388
10
18.3272788
20
-1.4463302
40
0.3980715
50
229.4223821
51
256.8554507
0
ARC
8
DEFAULT_255_1_388
10
18.2806342
20
-1.4988317
40
0.3278564
50
181.8183354
51
229.6455015
0
ARC
8
DEFAULT_255_1_388
10
18.3975951
20
-1.4841175
40
0.4453611
50
179.9760419
51
183.2330638
0
ARC
8
DEFAULT_255_1_388
10
18.3782503
20
-1.4864219
40
0.2579652
50
179.4467996
51
196.2871626
0
ARC
8
DEFAULT_255_1_388
10
18.3233957
20
-1.5014291
40
0.2011057
50
196.5661293
51
227.7059371
0
ARC
8
DEFAULT_255_1_388
10
18.3418564
20
-1.4807845
40
0.2287994
50
227.7653015
51
257.8763321
0
ARC
8
DEFAULT_255_1_388
10
18.3671647
20
-1.3747039
40
0.3378385
50
257.4583525
51
270.4267406
0
ARC
8
DEFAULT_255_1_388
10
18.3722897
20
-1.342077
40
0.3704652
50
269.5965319
51
280.8788143
0
ARC
8
DEFAULT_255_1_388
10
18.3981125
20
-1.4710471
40
0.2389415
50
280.6347277
51
299.8594068
0
ARC
8
DEFAULT_255_1_388
10
18.4195895
20
-1.5118264
40
0.19289
50
300.3575552
51
314.5515667
0
ARC
8
DEFAULT_255_1_388
10
18.410257
20
-1.5049975
40
0.204312
50
315.0730962
51
345.0429362
0
ARC
8
DEFAULT_255_1_388
10
18.3064078
20
-1.4747461
40
0.31246
50
344.598526
51
357.9270698
0
ARC
8
DEFAULT_255_1_388
10
18.2054383
20
-1.4678295
40
0.4136265
50
357.4755098
51
0.0224936
0
ARC
8
DEFAULT_255_1_388
10
18.320726
20
-1.4650901
40
0.2983498
50
359.5051035
51
13.4236939
0
ARC
8
DEFAULT_255_1_388
10
18.418235
20
-1.4401363
40
0.1977186
50
12.9497905
51
48.7550905
0
ARC
8
DEFAULT_255_1_388
10
18.3977272
20
-1.4681627
40
0.2323321
50
49.509109
51
72.1832965
0
ARC
8
DEFAULT_255_1_388
10
18.357474
20
-1.5876368
40
0.358397
50
71.9008458
51
84.3555134
0
ARC
8
DEFAULT_255_1_388
10
18.3393135
20
-1.7408288
40
0.512641
50
84.019632
51
89.3326067
0
LINE
8
DEFAULT_255_1_388
10
17.7814318
20
14.1815382
11
17.7814318
21
14.0451
0
LINE
8
DEFAULT_255_1_388
10
17.7814318
20
14.0451
11
16.9194313
21
14.0451
0
LINE
8
DEFAULT_255_1_388
10
16.9194313
20
14.0451
11
16.9194313
21
14.1652741
0
LINE
8
DEFAULT_255_1_388
10
16.9194313
20
14.1652741
11
17.3748278
21
14.6712702
0
LINE
8
DEFAULT_255_1_388
10
17.0612909
20
14.9730607
11
16.8941315
21
14.9730607
0
LINE
8
DEFAULT_255_1_388
10
17.4733163
20
14.563746
11
17.1209262
21
14.1815382
0
LINE
8
DEFAULT_255_1_388
10
17.1209262
20
14.1815382
11
17.7814318
21
14.1815382
0
ARC
8
DEFAULT_255_1_388
10
15.8572337
20
16.0132983
40
2.0258655
50
318.5132526
51
320.7829045
0
ARC
8
DEFAULT_255_1_388
10
16.4520294
20
15.5291929
40
1.2589638
50
320.7372878
51
323.9739031
0
ARC
8
DEFAULT_255_1_388
10
16.8929226
20
15.2097554
40
0.7145141
50
323.8962701
51
328.64194
0
ARC
8
DEFAULT_255_1_388
10
17.1231484
20
15.0677545
40
0.4440242
50
328.8294576
51
331.7891185
0
ARC
8
DEFAULT_255_1_388
10
17.2353804
20
15.0098374
40
0.3177517
50
331.4254512
51
352.9365785
0
ARC
8
DEFAULT_255_1_388
10
17.2506804
20
15.006405
40
0.3021496
50
353.2257659
51
0.0166158
0
ARC
8
DEFAULT_255_1_388
10
17.2743564
20
15.0089894
40
0.2784847
50
359.486299
51
15.9343185
0
ARC
8
DEFAULT_255_1_388
10
17.3313831
20
15.0243269
40
0.2194403
50
16.1712913
51
43.5286088
0
ARC
8
DEFAULT_255_1_388
10
17.3400776
20
15.0330191
40
0.2071504
50
43.4417391
51
83.1661095
0
ARC
8
DEFAULT_255_1_388
10
17.3249937
20
14.9501316
40
0.2912888
50
82.160179
51
90.1505708
0
ARC
8
DEFAULT_255_1_388
10
17.3214418
20
14.8897279
40
0.3517025
50
89.5460741
51
102.5418361
0
ARC
8
DEFAULT_255_1_388
10
17.2941138
20
15.0056933
40
0.2325748
50
102.1738499
51
129.206123
0
ARC
8
DEFAULT_255_1_388
10
17.2852592
20
15.0196664
40
0.2161591
50
129.72865
51
135.753947
0
ARC
8
DEFAULT_255_1_388
10
17.2989074
20
15.0087728
40
0.2335433
50
136.1757367
51
166.3673339
0
ARC
8
DEFAULT_255_1_388
10
17.4121762
20
14.9784148
40
0.3507873
50
165.9090694
51
178.8684636
0
ARC
8
DEFAULT_255_1_388
10
17.5097534
20
14.9731263
40
0.4484624
50
178.4391136
51
180.0083808
0
ARC
8
DEFAULT_255_1_388
10
17.3518235
20
14.9775197
40
0.4577138
50
163.2878482
51
180.5581842
0
ARC
8
DEFAULT_255_1_388
10
17.2616276
20
15.0023393
40
0.3641968
50
133.4540601
51
162.947111
0
ARC
8
DEFAULT_255_1_388
10
17.2817158
20
14.9809789
40
0.3935189
50
100.7869829
51
133.4382499
0
ARC
8
DEFAULT_255_1_388
10
17.3208403
20
14.8067399
40
0.5720313
50
89.660664
51
101.3702276
0
ARC
8
DEFAULT_255_1_388
10
17.3283012
20
14.8136263
40
0.5651495
50
78.2172678
51
90.412935
0
ARC
8
DEFAULT_255_1_388
10
17.3682478
20
14.9963511
40
0.378122
50
55.9269121
51
78.4888449
0
ARC
8
DEFAULT_255_1_388
10
17.3903193
20
15.0344187
40
0.3342379
50
47.929771
51
55.4049217
0
ARC
8
DEFAULT_255_1_388
10
17.4017723
20
15.0460618
40
0.3179217
50
4.334829
51
48.0560205
0
ARC
8
DEFAULT_255_1_388
10
17.2785525
20
15.0269487
40
0.442341
50
359.9251713
51
5.5971671
0
ARC
8
DEFAULT_255_1_388
10
17.326768
20
15.0332728
40
0.3941854
50
337.8914027
51
358.9967534
0
ARC
8
DEFAULT_255_1_388
10
17.021525
20
15.1510295
40
0.7213271
50
326.9132501
51
338.3508308
0
ARC
8
DEFAULT_255_1_388
10
16.5731362
20
15.4384105
40
1.2538973
50
319.6471833
51
327.0959558
0
ARC
8
DEFAULT_255_1_388
10
16.141802
20
15.794205
40
1.8129975
50
317.2588228
51
319.9045804
0
ENDSEC
0
EOF