0
SECTION
2
HEADER
9
$MEASUREMENT
70
1
0
ENDSEC
0
SECTION
2
TABLES
0
TABLE
2
LTYPE
0
LTYPE
72
65
70
64
2
CONTINUOUS
3
______
73
0
40
0
0
ENDTAB
0
TABLE
2
LAYER
0
LAYER
2
DEFAULT_255_2_778
70
0
62
255
6
CONTINUOUS
0
LAYER
2
DEFAULT_255_1_234
70
0
62
255
6
CONTINUOUS
0
ENDTAB
0
ENDSEC
0
SECTION
2
ENTITIES
0
LINE
8
DEFAULT_255_2_778
10
10.7156002
20
10.4510499
11
26.5906002
21
10.4510499
0
LINE
8
DEFAULT_255_2_778
10
26.5906002
20
10.4510499
11
26.5906002
21
2.5135499
0
LINE
8
DEFAULT_255_2_778
10
26.5906002
20
2.5135499
11
10.7156002
21
2.5135499
0
LINE
8
DEFAULT_255_2_778
10
10.7156002
20
2.5135499
11
10.7156002
21
10.4510499
0
LINE
8
DEFAULT_255_2_778
10
18.6531
20
10.4510499
11
18.6531
21
2.5135499
0
LINE
8
DEFAULT_255_2_778
10
13.3615417
20
2.5135499
11
13.3615417
21
10.4510499
0
LINE
8
DEFAULT_255_2_778
10
13.3615417
20
10.4510499
11
12.7000417
21
8.4666499
0
LINE
8
DEFAULT_255_2_778
10
12.7000417
20
8.4666499
11
14.0229417
21
8.4666499
0
LINE
8
DEFAULT_255_2_778
10
14.0229417
20
8.4666499
11
13.3615417
21
10.4510499
0
LINE
8
DEFAULT_255_2_778
10
21.299
20
-2.7781667
11
21.299
21
2.5135333
0
LINE
8
DEFAULT_255_2_778
10
21.2989834
20
15.7426831
11
21.2989834
21
10.4509831
0
LINE
8
DEFAULT_255_2_778
10
21.2989834
20
10.4509831
11
23.9447834
21
2.5134831
0
LINE
8
DEFAULT_255_2_778
10
23.9447417
20
-2.7781334
11
23.9447417
21
4.6301666
0
LINE
8
DEFAULT_255_2_778
10
23.9447417
20
4.6301666
11
22.6218417
21
4.1009666
0
LINE
8
DEFAULT_255_2_778
10
22.6218417
20
4.1009666
11
23.9447417
21
2.5134666
0
LINE
8
DEFAULT_255_2_778
10
21.2989834
20
2.5135499
11
23.9447834
21
10.4510499
0
LINE
8
DEFAULT_255_2_778
10
23.9447834
20
10.4510499
11
23.9447834
21
8.3343499
0
LINE
8
DEFAULT_255_2_778
10
23.9447834
20
8.3343499
11
22.7541834
21
8.8635499
0
LINE
8
DEFAULT_255_2_778
10
22.7541834
20
8.8635499
11
23.9447834
21
10.4510499
0
LINE
8
DEFAULT_255_2_778
10
23.9448
20
15.7426333
11
23.9448
21
10.4509333
0
LINE
8
DEFAULT_255_2_778
10
16.0073
20
2.5135499
11
16.0073
21
10.4510499
0
LINE
8
DEFAULT_255_2_778
10
15.3458417
20
4.4978875
11
16.6687417
21
4.4978875
0
LINE
8
DEFAULT_255_2_778
10
16.6687417
20
4.4978875
11
16.0073417
21
2.5134875
0
LINE
8
DEFAULT_255_2_778
10
16.0073417
20
2.5134875
11
15.3458417
21
4.4978875
0
LINE
8
DEFAULT_255_2_778
10
5.4239834
20
5.6885
11
8.0697834
21
5.6885
0
LINE
8
DEFAULT_255_2_778
10
8.0697834
20
5.6885
11
8.0697834
21
2.5135
0
LINE
8
DEFAULT_255_2_778
10
8.0697834
20
2.5135
11
5.4239834
21
2.5135
0
LINE
8
DEFAULT_255_2_778
10
5.4239834
20
2.5135
11
5.4239834
21
5.6885
0
LINE
8
DEFAULT_255_2_778
10
6.0854417
20
2.5135
11
7.4083417
21
5.6885
0
LINE
8
DEFAULT_255_2_778
10
29.2364834
20
5.6885
11
31.8822834
21
5.6885
0
LINE
8
DEFAULT_255_2_778
10
31.8822834
20
5.6885
11
31.8822834
21
2.5135
0
LINE
8
DEFAULT_255_2_778
10
31.8822834
20
2.5135
11
29.2364834
21
2.5135
0
LINE
8
DEFAULT_255_2_778
10
29.2364834
20
2.5135
11
29.2364834
21
5.6885
0
LINE
8
DEFAULT_255_2_778
10
29.8979417
20
5.6885
11
31.2208417
21
2.5135
0
LINE
8
DEFAULT_255_2_778
10
8.0697834
20
9.1280916
11
10.7155834
21
9.1280916
0
LINE
8
DEFAULT_255_2_778
10
10.7155834
20
9.1280916
11
10.7155834
21
2.5134916
0
LINE
8
DEFAULT_255_2_778
10
10.7155834
20
2.5134916
11
8.0697834
21
2.5134916
0
LINE
8
DEFAULT_255_2_778
10
8.0697834
20
2.5134916
11
8.0697834
21
9.1280916
0
LINE
8
DEFAULT_255_2_778
10
8.06975
20
9.1280916
11
9.65725
21
5.6884916
0
LINE
8
DEFAULT_255_2_778
10
9.65725
20
5.6884916
11
8.06975
21
2.5134916
0
LINE
8
DEFAULT_255_2_778
10
5.424
20
9.9218
11
5.424
21
6.7468
0
LINE
8
DEFAULT_255_2_778
10
5.4239834
20
9.1281
11
8.0697834
21
9.1281
0
LINE
8
DEFAULT_255_2_778
10
5.4239834
20
7.5406
11
8.0697834
21
7.5406
0
LINE
8
DEFAULT_255_2_778
10
26.5905834
20
9.1280916
11
29.2363834
21
9.1280916
0
LINE
8
DEFAULT_255_2_778
10
29.2363834
20
9.1280916
11
29.2363834
21
2.5134916
0
LINE
8
DEFAULT_255_2_778
10
29.2363834
20
2.5134916
11
26.5905834
21
2.5134916
0
LINE
8
DEFAULT_255_2_778
10
26.5905834
20
2.5134916
11
26.5905834
21
9.1280916
0
LINE
8
DEFAULT_255_2_778
10
29.23645
20
9.1280916
11
27.64895
21
5.6884916
0
LINE
8
DEFAULT_255_2_778
10
27.64895
20
5.6884916
11
29.23645
21
2.5134916
0
LINE
8
DEFAULT_255_2_778
10
29.2364834
20
9.1281
11
31.8822834
21
9.1281
0
LINE
8
DEFAULT_255_2_778
10
31.8822834
20
7.5406
11
29.2364834
21
7.5406
0
LINE
8
DEFAULT_255_2_778
10
31.8823
20
9.9218
11
31.8823
21
6.7468
0
LINE
8
DEFAULT_255_1_234
10
18.8512137
20
-0.6674567
11
18.8512137
21
-1.8425
0
LINE
8
DEFAULT_255_1_234
10
18.8512137
20
-1.8425
11
18.7018234
21
-1.8425
0
LINE
8
DEFAULT_255_1_234
10
18.7018234
20
-1.8425
11
18.7018234
21
-0.8521867
0
LINE
8
DEFAULT_255_1_234
10
18.7018234
20
-0.8521867
11
18.4022396
21
-0.9622215
0
LINE
8
DEFAULT_255_1_234
10
18.4022396
20
-0.9622215
11
18.4022396
21
-0.8272883
0
LINE
8
DEFAULT_255_1_234
10
18.4022396
20
-0.8272883
11
18.8279217
21
-0.6674567
0
LINE
8
DEFAULT_255_1_234
10
18.8279217
20
-0.6674567
11
18.8512137
21
-0.6674567
0
LINE
8
DEFAULT_255_1_234
10
19.5025877
20
-1.3067831
11
19.5025877
21
-1.1855038
0
LINE
8
DEFAULT_255_1_234
10
19.5025877
20
-1.1855038
11
19.6142289
21
-1.1855038
0
LINE
8
DEFAULT_255_1_234
10
19.4238767
20
-0.9798913
11
19.2752895
21
-0.9798913
0
LINE
8
DEFAULT_255_1_234
10
19.2648482
20
-1.5340812
11
19.4142386
21
-1.5340812
0
LINE
8
DEFAULT_255_1_234
10
19.6142289
20
-1.3067831
11
19.5025877
21
-1.3067831
0
ARC
8
DEFAULT_255_1_234
10
19.6113155
20
-0.8462287
40
0.3392876
50
270.4919872
51
281.8951556
0
ARC
8
DEFAULT_255_1_234
10
19.6354417
20
-0.9564298
40
0.2264817
50
281.6691735
51
301.2943132
0
ARC
8
DEFAULT_255_1_234
10
19.6524627
20
-0.9875696
40
0.1910381
50
301.7833094
51
311.7545298
0
ARC
8
DEFAULT_255_1_234
10
19.6616203
20
-0.9977252
40
0.1773635
50
311.7323931
51
354.2802411
0
ARC
8
DEFAULT_255_1_234
10
19.5889828
20
-0.9852278
40
0.2509385
50
353.0937916
51
0.1181479
0
ARC
8
DEFAULT_255_1_234
10
19.5428613
20
-0.9804614
40
0.2970898
50
359.1805295
51
15.0453146
0
ARC
8
DEFAULT_255_1_234
10
19.677445
20
-0.9412008
40
0.1569564
50
13.9577229
51
77.6713066
0
ARC
8
DEFAULT_255_1_234
10
19.6387979
20
-1.0797051
40
0.3006298
50
76.1116566
51
90.7026153
0
ARC
8
DEFAULT_255_1_234
10
19.6328817
20
-1.0523455
40
0.2732568
50
89.5324876
51
103.531937
0
ARC
8
DEFAULT_255_1_234
10
19.6128261
20
-0.9724116
40
0.1908508
50
103.2931773
51
133.5619022
0
ARC
8
DEFAULT_255_1_234
10
19.608375
20
-0.9664625
40
0.1834746
50
133.8349307
51
173.5344437
0
ARC
8
DEFAULT_255_1_234
10
19.6806793
20
-0.9792787
40
0.2568033
50
172.5096846
51
180.1366907
0
ARC
8
DEFAULT_255_1_234
10
19.5855687
20
-0.9758378
40
0.3103056
50
155.3484492
51
180.7484736
0
ARC
8
DEFAULT_255_1_234
10
19.5806776
20
-0.9787154
40
0.3070957
50
131.5744599
51
154.4798489
0
ARC
8
DEFAULT_255_1_234
10
19.6119923
20
-1.010369
40
0.3515643
50
96.9875458
51
131.9690667
0
ARC
8
DEFAULT_255_1_234
10
19.6339403
20
-1.1349364
40
0.4779224
50
89.8596053
51
97.7825159
0
ARC
8
DEFAULT_255_1_234
10
19.6387466
20
-1.1611384
40
0.5041361
50
78.3655447
51
90.4131539
0
ARC
8
DEFAULT_255_1_234
10
19.6745384
20
-0.9952113
40
0.3344039
50
56.6229102
51
78.638727
0
ARC
8
DEFAULT_255_1_234
10
19.6960328
20
-0.9576195
40
0.2912001
50
47.0253525
51
56.0854072
0
ARC
8
DEFAULT_255_1_234
10
19.6980108
20
-0.9536777
40
0.2869704
50
10.9208013
51
46.7778124
0
ARC
8
DEFAULT_255_1_234
10
19.5616174
20
-0.9852143
40
0.426899
50
359.6364486
51
11.6087304
0
ARC
8
DEFAULT_255_1_234
10
19.7451018
20
-0.9867248
40
0.243409
50
332.3549906
51
359.7179418
0
ARC
8
DEFAULT_255_1_234
10
19.680062
20
-0.9558858
40
0.3153459
50
325.2333722
51
332.8745602
0
ARC
8
DEFAULT_255_1_234
10
19.6953244
20
-0.9665172
40
0.2967456
50
292.9802137
51
325.2392345
0
ARC
8
DEFAULT_255_1_234
10
19.6678617
20
-0.9131137
40
0.3566604
50
292.5402179
51
293.6924929
0
ARC
8
DEFAULT_255_1_234
10
19.7071213
20
-1.5585909
40
0.3307468
50
57.6435486
51
72.8625112
0
ARC
8
DEFAULT_255_1_234
10
19.7425713
20
-1.5011451
40
0.2632492
50
36.7248896
51
57.4697979
0
ARC
8
DEFAULT_255_1_234
10
19.7414346
20
-1.499878
40
0.2634081
50
8.0545065
51
36.356114
0
ARC
8
DEFAULT_255_1_234
10
19.6551531
20
-1.5153826
40
0.3510261
50
359.8320645
51
8.5869982
0
ARC
8
DEFAULT_255_1_234
10
19.6176307
20
-1.5201899
40
0.3885653
50
343.9829931
51
0.5571613
0
ARC
8
DEFAULT_255_1_234
10
19.7062504
20
-1.5444562
40
0.2966924
50
311.6359546
51
343.7651759
0
ARC
8
DEFAULT_255_1_234
10
19.6684074
20
-1.5017898
40
0.3537231
50
279.7829875
51
311.6255694
0
ARC
8
DEFAULT_255_1_234
10
19.638285
20
-1.358072
40
0.5004971
50
269.7286406
51
280.3856417
0
ARC
8
DEFAULT_255_1_234
10
19.6320922
20
-1.3622004
40
0.4963778
50
256.6828919
51
270.4412052
0
ARC
8
DEFAULT_255_1_234
10
19.5982218
20
-1.5006606
40
0.3538406
50
229.4223008
51
256.8556159
0
ARC
8
DEFAULT_255_1_234
10
19.5567611
20
-1.5473264
40
0.2914296
50
181.818294
51
229.6455059
0
ARC
8
DEFAULT_255_1_234
10
19.6607567
20
-1.5342504
40
0.3959084
50
179.9755256
51
183.2323064
0
ARC
8
DEFAULT_255_1_234
10
19.6435313
20
-1.5362963
40
0.2293034
50
179.4465117
51
196.2869258
0
ARC
8
DEFAULT_255_1_234
10
19.5947721
20
-1.5496349
40
0.1787621
50
196.5661473
51
227.705904
0
ARC
8
DEFAULT_255_1_234
10
19.6111816
20
-1.5312845
40
0.2033784
50
227.7652068
51
257.8762805
0
ARC
8
DEFAULT_255_1_234
10
19.6336786
20
-1.4369844
40
0.3003081
50
257.4584385
51
270.426602
0
ARC
8
DEFAULT_255_1_234
10
19.6382352
20
-1.4080004
40
0.329292
50
269.5962073
51
280.8789248
0
ARC
8
DEFAULT_255_1_234
10
19.6611881
20
-1.5226315
40
0.2123908
50
280.6346389
51
299.8595945
0
ARC
8
DEFAULT_255_1_234
10
19.6802788
20
-1.5588788
40
0.171457
50
300.3576302
51
314.5517981
0
ARC
8
DEFAULT_255_1_234
10
19.6719848
20
-1.5528081
40
0.1816095
50
315.0728369
51
345.0431014
0
ARC
8
DEFAULT_255_1_234
10
19.5796662
20
-1.5259159
40
0.2777492
50
344.5986631
51
357.9269593
0
ARC
8
DEFAULT_255_1_234
10
19.4900989
20
-1.5197724
40
0.3674917
50
357.4748886
51
0.0231117
0
ARC
8
DEFAULT_255_1_234
10
19.5924098
20
-1.5173321
40
0.2651907
50
359.5047933
51
13.4239635
0
ARC
8
DEFAULT_255_1_234
10
19.6790741
20
-1.4951522
40
0.1757509
50
12.9498199
51
48.7551375
0
ARC
8
DEFAULT_255_1_234
10
19.6608475
20
-1.52006
40
0.2065134
50
49.5088623
51
72.1836453
0
ARC
8
DEFAULT_255_1_234
10
19.6250628
20
-1.6262709
40
0.3185836
50
71.9010081
51
84.3554254
0
ARC
8
DEFAULT_255_1_234
10
19.608926
20
-1.7623674
40
0.4556151
50
84.0193428
51
89.333121
0
LINE
8
DEFAULT_255_1_234
10
19.3325119
20
13.5753792
11
19.3325119
21
13.4541
0
LINE
8
DEFAULT_255_1_234
10
19.3325119
20
13.4541
11
18.566284
21
13.4541
0
LINE
8
DEFAULT_255_1_234
10
18.566284
20
13.4541
11
18.566284
21
13.5609221
0
LINE
8
DEFAULT_255_1_234
10
18.566284
20
13.5609221
11
18.9710836
21
14.0106995
0
LINE
8
DEFAULT_255_1_234
10
18.6923823
20
14.2789595
11
18.5437952
21
14.2789595
0
LINE
8
DEFAULT_255_1_234
10
19.0586296
20
13.9151218
11
18.7453918
21
13.5753792
0
LINE
8
DEFAULT_255_1_234
10
18.7453918
20
13.5753792
11
19.3325119
21
13.5753792
0
ARC
8
DEFAULT_255_1_234
10
17.622067
20
15.2036527
40
1.8008286
50
318.5132453
51
320.7828378
0
ARC
8
DEFAULT_255_1_234
10
18.1507644
20
14.7733426
40
1.1191493
50
320.7372736
51
323.9737074
0
ARC
8
DEFAULT_255_1_234
10
18.5427501
20
14.4893361
40
0.6350923
50
323.8961724
51
328.6421089
0
ARC
8
DEFAULT_255_1_234
10
18.7474096
20
14.3631031
40
0.3946393
50
328.8299013
51
331.789948
0
ARC
8
DEFAULT_255_1_234
10
18.8471274
20
14.3116509
40
0.2824501
50
331.4255242
51
352.9364833
0
ARC
8
DEFAULT_255_1_234
10
18.8607775
20
14.3085976
40
0.2685315
50
353.2248685
51
0.0169286
0
ARC
8
DEFAULT_255_1_234
10
18.8817652
20
14.310895
40
0.2475536
50
359.4866256
51
15.9339782
0
ARC
8
DEFAULT_255_1_234
10
18.9324637
20
14.3245286
40
0.1950618
50
16.1714718
51
43.5284424
0
ARC
8
DEFAULT_255_1_234
10
18.9401946
20
14.3322573
40
0.184134
50
43.4415429
51
83.1661404
0
ARC
8
DEFAULT_255_1_234
10
18.9267864
20
14.2585771
40
0.258926
50
82.160215
51
90.1505798
0
ARC
8
DEFAULT_255_1_234
10
18.9236291
20
14.2048865
40
0.3126255
50
89.5460705
51
102.5418777
0
ARC
8
DEFAULT_255_1_234
10
18.8993377
20
14.3079665
40
0.2067346
50
102.1739365
51
129.2061916
0
ARC
8
DEFAULT_255_1_234
10
18.8914449
20
14.3204094
40
0.1921118
50
129.7279328
51
135.7542026
0
ARC
8
DEFAULT_255_1_234
10
18.9035977
20
14.3107045
40
0.2075944
50
136.175737
51
166.3674722
0
ARC
8
DEFAULT_255_1_234
10
19.0042896
20
14.2837182
40
0.3118201
50
165.9092917
51
178.8683903
0
ARC
8
DEFAULT_255_1_234
10
19.0907757
20
14.2790179
40
0.3983935
50
178.438168
51
180.0083905
0
ARC
8
DEFAULT_255_1_234
10
18.9506359
20
14.2829231
40
0.4068601
50
163.2878735
51
180.5581814
0
ARC
8
DEFAULT_255_1_234
10
18.8704621
20
14.304984
40
0.3237344
50
133.454115
51
162.9470031
0
ARC
8
DEFAULT_255_1_234
10
18.8883162
20
14.286
40
0.349795
50
100.7869394
51
133.4384016
0
ARC
8
DEFAULT_255_1_234
10
18.9230934
20
14.1311319
40
0.5084616
50
89.6605301
51
101.3704185
0
ARC
8
DEFAULT_255_1_234
10
18.9297273
20
14.1372496
40
0.502348
50
78.2171172
51
90.4130393
0
ARC
8
DEFAULT_255_1_234
10
18.9652351
20
14.2996637
40
0.3361092
50
55.9268222
51
78.4888551
0
ARC
8
DEFAULT_255_1_234
10
18.9848791
20
14.3335324
40
0.2970617
50
47.9292255
51
55.4054003
0
ARC
8
DEFAULT_255_1_234
10
18.9950352
20
14.3438502
40
0.2825983
50
4.3347696
51
48.0560701
0
ARC
8
DEFAULT_255_1_234
10
18.8854745
20
14.3268601
40
0.393225
50
359.925209
51
5.5967654
0
ARC
8
DEFAULT_255_1_234
10
18.9283637
20
14.3324816
40
0.3503892
50
337.8914096
51
358.9967724
0
ARC
8
DEFAULT_255_1_234
10
18.6570049
20
14.4371706
40
0.6412172
50
326.9135351
51
338.3505194
0
ARC
8
DEFAULT_255_1_234
10
18.2584353
20
14.6926284
40
1.1146189
50
319.6472867
51
327.095818
0
ARC
8
DEFAULT_255_1_234
10
17.8751356
20
15.0088
40
1.6114559
50
317.2586784
51
319.9046139
0
LINE
8
DEFAULT_255_1_234
10
20.1172127
20
14.6235211
11
20.1172127
21
13.846852
0
LINE
8
DEFAULT_255_1_234
10
20.1172127
20
13.846852
11
20.2794538
21
13.846852
0
LINE
8
DEFAULT_255_1_234
10
20.2794538
20
13.846852
11
20.2794538
21
13.7255728
0
LINE
8
DEFAULT_255_1_234
10
20.2794538
20
13.7255728
11
20.1172127
21
13.7255728
0
LINE
8
DEFAULT_255_1_234
10
20.1172127
20
13.7255728
11
20.1172127
21
13.4541
0
LINE
8
DEFAULT_255_1_234
10
20.1172127
20
13.4541
11
19.9678224
21
13.4541
0
LINE
8
DEFAULT_255_1_234
10
19.9678224
20
13.4541
11
19.9678224
21
13.7255728
0
LINE
8
DEFAULT_255_1_234
10
19.9678224
20
13.7255728
11
19.4353181
21
13.7255728
0
LINE
8
DEFAULT_255_1_234
10
19.4353181
20
13.7255728
11
19.4353181
21
13.8131187
0
LINE
8
DEFAULT_255_1_234
10
19.4353181
20
13.8131187
11
19.9589875
21
14.6235211
0
LINE
8
DEFAULT_255_1_234
10
19.9589875
20
14.6235211
11
20.1172127
21
14.6235211
0
LINE
8
DEFAULT_255_1_234
10
19.9501525
20
14.3881912
11
19.6039846
21
13.846852
0
LINE
8
DEFAULT_255_1_234
10
19.6039846
20
13.846852
11
19.9678224
21
13.846852
0
LINE
8
DEFAULT_255_1_234
10
19.9678224
20
13.846852
11
19.9678224
21
14.4203181
0
LINE
8
DEFAULT_255_1_234
10
19.9678224
20
14.4203181
11
19.9501525
21
14.3881912
0
ENDSEC
0
EOF