0
SECTION
2
HEADER
9
$MEASUREMENT
70
1
0
ENDSEC
0
SECTION
2
TABLES
0
TABLE
2
LTYPE
0
LTYPE
72
65
70
64
2
CONTINUOUS
3
______
73
0
40
0
0
ENDTAB
0
TABLE
2
LAYER
0
LAYER
2
DEFAULT_255_2_778
70
0
62
255
6
CONTINUOUS
0
LAYER
2
DEFAULT_255_1_234
70
0
62
255
6
CONTINUOUS
0
ENDTAB
0
ENDSEC
0
SECTION
2
ENTITIES
0
LINE
8
DEFAULT_255_2_778
10
4.1007834
20
5.6885
11
6.7465834
21
5.6885
0
LINE
8
DEFAULT_255_2_778
10
6.7465834
20
5.6885
11
6.7465834
21
2.5135
0
LINE
8
DEFAULT_255_2_778
10
6.7465834
20
2.5135
11
4.1007834
21
2.5135
0
LINE
8
DEFAULT_255_2_778
10
4.1007834
20
2.5135
11
4.1007834
21
5.6885
0
LINE
8
DEFAULT_255_2_778
10
4.7622417
20
2.5135
11
6.0851417
21
5.6885
0
LINE
8
DEFAULT_255_2_778
10
6.7466337
20
10.4510499
11
33.2049337
21
10.4510499
0
LINE
8
DEFAULT_255_2_778
10
33.2049337
20
10.4510499
11
33.2049337
21
2.5135499
0
LINE
8
DEFAULT_255_2_778
10
33.2049337
20
2.5135499
11
6.7466337
21
2.5135499
0
LINE
8
DEFAULT_255_2_778
10
6.7466337
20
2.5135499
11
6.7466337
21
10.4510499
0
LINE
8
DEFAULT_255_2_778
10
9.3924834
20
2.5135499
11
12.0382834
21
10.4510499
0
LINE
8
DEFAULT_255_2_778
10
12.0382834
20
10.4510499
11
12.0382834
21
8.3343499
0
LINE
8
DEFAULT_255_2_778
10
12.0382834
20
8.3343499
11
10.8476834
21
8.8635499
0
LINE
8
DEFAULT_255_2_778
10
10.8476834
20
8.8635499
11
12.0382834
21
10.4510499
0
LINE
8
DEFAULT_255_2_778
10
9.3924501
20
4.6302499
11
10.7153501
21
4.1010499
0
LINE
8
DEFAULT_255_2_778
10
10.7153501
20
4.1010499
11
9.3924501
21
2.5135499
0
LINE
8
DEFAULT_255_2_778
10
9.3924501
20
2.5135499
11
9.3924501
21
4.6302499
0
LINE
8
DEFAULT_255_2_778
10
14.6841501
20
2.5135499
11
17.3299501
21
10.4510499
0
LINE
8
DEFAULT_255_2_778
10
17.3299501
20
10.4510499
11
17.3299501
21
8.3343499
0
LINE
8
DEFAULT_255_2_778
10
17.3299501
20
8.3343499
11
16.1393501
21
8.8635499
0
LINE
8
DEFAULT_255_2_778
10
16.1393501
20
8.8635499
11
17.3299501
21
10.4510499
0
LINE
8
DEFAULT_255_2_778
10
14.6841417
20
4.6301333
11
16.0070417
21
4.1009333
0
LINE
8
DEFAULT_255_2_778
10
16.0070417
20
4.1009333
11
14.6841417
21
2.5134333
0
LINE
8
DEFAULT_255_2_778
10
14.6841417
20
2.5134333
11
14.6841417
21
4.6301333
0
LINE
8
DEFAULT_255_2_778
10
9.3924
20
10.4510166
11
9.3924
21
7.8052166
0
LINE
8
DEFAULT_255_2_778
10
10.0538918
20
7.8052166
11
8.7309918
21
7.8052166
0
LINE
8
DEFAULT_255_2_778
10
14.8163918
20
10.4510166
11
14.8163918
21
7.8052166
0
LINE
8
DEFAULT_255_2_778
10
15.4778834
20
7.8052499
11
14.1549834
21
7.8052499
0
LINE
8
DEFAULT_255_2_778
10
19.9757834
20
10.4510499
11
19.9757834
21
2.5135499
0
LINE
8
DEFAULT_255_2_778
10
22.6216417
20
2.5135499
11
22.6216417
21
10.4510499
0
LINE
8
DEFAULT_255_2_778
10
22.6216417
20
10.4510499
11
21.9601417
21
8.4666499
0
LINE
8
DEFAULT_255_2_778
10
21.9601417
20
8.4666499
11
23.2830417
21
8.4666499
0
LINE
8
DEFAULT_255_2_778
10
23.2830417
20
8.4666499
11
22.6216417
21
10.4510499
0
LINE
8
DEFAULT_255_2_778
10
21.9601084
20
4.4979499
11
23.2830084
21
4.4979499
0
LINE
8
DEFAULT_255_2_778
10
23.2830084
20
4.4979499
11
22.6216084
21
2.5135499
0
LINE
8
DEFAULT_255_2_778
10
22.6216084
20
2.5135499
11
21.9601084
21
4.4979499
0
LINE
8
DEFAULT_255_2_778
10
27.9132084
20
2.5135499
11
27.9132084
21
10.4510499
0
LINE
8
DEFAULT_255_2_778
10
27.9132084
20
10.4510499
11
27.2518084
21
8.4666499
0
LINE
8
DEFAULT_255_2_778
10
27.2518084
20
8.4666499
11
28.5747084
21
8.4666499
0
LINE
8
DEFAULT_255_2_778
10
28.5747084
20
8.4666499
11
27.9132084
21
10.4510499
0
LINE
8
DEFAULT_255_2_778
10
27.2518417
20
4.4978875
11
28.5747417
21
4.4978875
0
LINE
8
DEFAULT_255_2_778
10
28.5747417
20
4.4978875
11
27.9133417
21
2.5134875
0
LINE
8
DEFAULT_255_2_778
10
27.9133417
20
2.5134875
11
27.2518417
21
4.4978875
0
LINE
8
DEFAULT_255_2_778
10
25.2674
20
15.7426499
11
25.2674
21
7.8051499
0
LINE
8
DEFAULT_255_2_778
10
25.9288376
20
7.8051499
11
24.6059376
21
7.8051499
0
LINE
8
DEFAULT_255_2_778
10
30.5590376
20
15.7426499
11
30.5590376
21
7.8051499
0
LINE
8
DEFAULT_255_2_778
10
31.2205359
20
7.8052164
11
29.8976359
21
7.8052164
0
LINE
8
DEFAULT_255_2_778
10
22.6215359
20
10.4510164
11
22.6215359
21
15.7427164
0
LINE
8
DEFAULT_255_2_778
10
27.9132359
20
10.4510164
11
27.9132359
21
15.7427164
0
LINE
8
DEFAULT_255_2_778
10
27.9132359
20
2.5135164
11
27.9132359
21
-2.7780836
0
LINE
8
DEFAULT_255_2_778
10
22.6215359
20
2.5135164
11
22.6215359
21
-2.7780836
0
LINE
8
DEFAULT_255_2_778
10
4.1007359
20
10.4510164
11
4.1007359
21
7.2760164
0
LINE
8
DEFAULT_255_2_778
10
4.1007359
20
9.6573164
11
6.7465359
21
9.6573164
0
LINE
8
DEFAULT_255_2_778
10
4.1007359
20
8.0698164
11
6.7465359
21
8.0698164
0
LINE
8
DEFAULT_255_2_778
10
33.2049359
20
3.7835164
11
33.4988359
21
5.6885164
0
LINE
8
DEFAULT_255_2_778
10
33.4988359
20
5.6885164
11
33.9399359
21
2.5135164
0
LINE
8
DEFAULT_255_2_778
10
33.9399359
20
2.5135164
11
34.3809359
21
5.6885164
0
LINE
8
DEFAULT_255_2_778
10
34.3809359
20
5.6885164
11
34.8220359
21
2.5135164
0
LINE
8
DEFAULT_255_2_778
10
34.8220359
20
2.5135164
11
35.2631359
21
5.6885164
0
LINE
8
DEFAULT_255_2_778
10
35.2631359
20
5.6885164
11
35.7041359
21
2.5135164
0
LINE
8
DEFAULT_255_2_778
10
35.7041359
20
2.5135164
11
35.8512359
21
3.7835164
0
LINE
8
DEFAULT_255_1_234
10
20.3868137
20
-0.6674567
11
20.3868137
21
-1.8425
0
LINE
8
DEFAULT_255_1_234
10
20.3868137
20
-1.8425
11
20.2374234
21
-1.8425
0
LINE
8
DEFAULT_255_1_234
10
20.2374234
20
-1.8425
11
20.2374234
21
-0.8521867
0
LINE
8
DEFAULT_255_1_234
10
20.2374234
20
-0.8521867
11
19.9378396
21
-0.9622215
0
LINE
8
DEFAULT_255_1_234
10
19.9378396
20
-0.9622215
11
19.9378396
21
-0.8272883
0
LINE
8
DEFAULT_255_1_234
10
19.9378396
20
-0.8272883
11
20.3635217
21
-0.6674567
0
LINE
8
DEFAULT_255_1_234
10
20.3635217
20
-0.6674567
11
20.3868137
21
-0.6674567
0
LINE
8
DEFAULT_255_1_234
10
21.4494127
20
-0.6730789
11
21.4494127
21
-1.449748
0
LINE
8
DEFAULT_255_1_234
10
21.4494127
20
-1.449748
11
21.6116538
21
-1.449748
0
LINE
8
DEFAULT_255_1_234
10
21.6116538
20
-1.449748
11
21.6116538
21
-1.5710272
0
LINE
8
DEFAULT_255_1_234
10
21.6116538
20
-1.5710272
11
21.4494127
21
-1.5710272
0
LINE
8
DEFAULT_255_1_234
10
21.4494127
20
-1.5710272
11
21.4494127
21
-1.8425
0
LINE
8
DEFAULT_255_1_234
10
21.4494127
20
-1.8425
11
21.3000224
21
-1.8425
0
LINE
8
DEFAULT_255_1_234
10
21.3000224
20
-1.8425
11
21.3000224
21
-1.5710272
0
LINE
8
DEFAULT_255_1_234
10
21.3000224
20
-1.5710272
11
20.7675181
21
-1.5710272
0
LINE
8
DEFAULT_255_1_234
10
20.7675181
20
-1.5710272
11
20.7675181
21
-1.4834813
0
LINE
8
DEFAULT_255_1_234
10
20.7675181
20
-1.4834813
11
21.2911875
21
-0.6730789
0
LINE
8
DEFAULT_255_1_234
10
21.2911875
20
-0.6730789
11
21.4494127
21
-0.6730789
0
LINE
8
DEFAULT_255_1_234
10
21.2823525
20
-0.9084088
11
20.9361846
21
-1.449748
0
LINE
8
DEFAULT_255_1_234
10
20.9361846
20
-1.449748
11
21.3000224
21
-1.449748
0
LINE
8
DEFAULT_255_1_234
10
21.3000224
20
-1.449748
11
21.3000224
21
-0.8762819
0
LINE
8
DEFAULT_255_1_234
10
21.3000224
20
-0.8762819
11
21.2823525
21
-0.9084088
0
LINE
8
DEFAULT_255_1_234
10
20.5798119
20
13.5753792
11
20.5798119
21
13.4541
0
LINE
8
DEFAULT_255_1_234
10
20.5798119
20
13.4541
11
19.813584
21
13.4541
0
LINE
8
DEFAULT_255_1_234
10
19.813584
20
13.4541
11
19.813584
21
13.5609221
0
LINE
8
DEFAULT_255_1_234
10
19.813584
20
13.5609221
11
20.2183836
21
14.0106995
0
LINE
8
DEFAULT_255_1_234
10
19.9396823
20
14.2789595
11
19.7910952
21
14.2789595
0
LINE
8
DEFAULT_255_1_234
10
20.3059296
20
13.9151218
11
19.9926918
21
13.5753792
0
LINE
8
DEFAULT_255_1_234
10
19.9926918
20
13.5753792
11
20.5798119
21
13.5753792
0
ARC
8
DEFAULT_255_1_234
10
18.869367
20
15.2036527
40
1.8008286
50
318.5132453
51
320.7828378
0
ARC
8
DEFAULT_255_1_234
10
19.3980644
20
14.7733426
40
1.1191493
50
320.7372736
51
323.9737074
0
ARC
8
DEFAULT_255_1_234
10
19.7900501
20
14.4893361
40
0.6350923
50
323.8961724
51
328.6421089
0
ARC
8
DEFAULT_255_1_234
10
19.9947096
20
14.3631031
40
0.3946393
50
328.8299013
51
331.789948
0
ARC
8
DEFAULT_255_1_234
10
20.0944274
20
14.3116509
40
0.2824501
50
331.4255242
51
352.9364833
0
ARC
8
DEFAULT_255_1_234
10
20.1080775
20
14.3085976
40
0.2685315
50
353.2248685
51
0.0169286
0
ARC
8
DEFAULT_255_1_234
10
20.1290652
20
14.310895
40
0.2475536
50
359.4866256
51
15.9339782
0
ARC
8
DEFAULT_255_1_234
10
20.1797637
20
14.3245286
40
0.1950618
50
16.1714718
51
43.5284424
0
ARC
8
DEFAULT_255_1_234
10
20.1874946
20
14.3322573
40
0.184134
50
43.4415429
51
83.1661404
0
ARC
8
DEFAULT_255_1_234
10
20.1740864
20
14.2585771
40
0.258926
50
82.160215
51
90.1505798
0
ARC
8
DEFAULT_255_1_234
10
20.1709291
20
14.2048865
40
0.3126255
50
89.5460705
51
102.5418777
0
ARC
8
DEFAULT_255_1_234
10
20.1466377
20
14.3079665
40
0.2067346
50
102.1739365
51
129.2061916
0
ARC
8
DEFAULT_255_1_234
10
20.1387449
20
14.3204094
40
0.1921118
50
129.7279328
51
135.7542026
0
ARC
8
DEFAULT_255_1_234
10
20.1508977
20
14.3107045
40
0.2075944
50
136.175737
51
166.3674722
0
ARC
8
DEFAULT_255_1_234
10
20.2515896
20
14.2837182
40
0.3118201
50
165.9092917
51
178.8683903
0
ARC
8
DEFAULT_255_1_234
10
20.3380757
20
14.2790179
40
0.3983935
50
178.438168
51
180.0083905
0
ARC
8
DEFAULT_255_1_234
10
20.1979359
20
14.2829231
40
0.4068601
50
163.2878735
51
180.5581814
0
ARC
8
DEFAULT_255_1_234
10
20.1177621
20
14.304984
40
0.3237344
50
133.454115
51
162.9470031
0
ARC
8
DEFAULT_255_1_234
10
20.1356162
20
14.286
40
0.349795
50
100.7869394
51
133.4384016
0
ARC
8
DEFAULT_255_1_234
10
20.1703934
20
14.1311319
40
0.5084616
50
89.6605301
51
101.3704185
0
ARC
8
DEFAULT_255_1_234
10
20.1770273
20
14.1372496
40
0.502348
50
78.2171172
51
90.4130393
0
ARC
8
DEFAULT_255_1_234
10
20.2125351
20
14.2996637
40
0.3361092
50
55.9268222
51
78.4888551
0
ARC
8
DEFAULT_255_1_234
10
20.2321791
20
14.3335324
40
0.2970617
50
47.9292255
51
55.4054003
0
ARC
8
DEFAULT_255_1_234
10
20.2423352
20
14.3438502
40
0.2825983
50
4.3347696
51
48.0560701
0
ARC
8
DEFAULT_255_1_234
10
20.1327745
20
14.3268601
40
0.393225
50
359.925209
51
5.5967654
0
ARC
8
DEFAULT_255_1_234
10
20.1756637
20
14.3324816
40
0.3503892
50
337.8914096
51
358.9967724
0
ARC
8
DEFAULT_255_1_234
10
19.9043049
20
14.4371706
40
0.6412172
50
326.9135351
51
338.3505194
0
ARC
8
DEFAULT_255_1_234
10
19.5057353
20
14.6926284
40
1.1146189
50
319.6472867
51
327.095818
0
ARC
8
DEFAULT_255_1_234
10
19.1224356
20
15.0088
40
1.6114559
50
317.2586784
51
319.9046139
0
LINE
8
DEFAULT_255_1_234
10
20.9532877
20
13.9898169
11
20.9532877
21
14.1110962
0
LINE
8
DEFAULT_255_1_234
10
20.9532877
20
14.1110962
11
21.0649289
21
14.1110962
0
LINE
8
DEFAULT_255_1_234
10
20.8745767
20
14.3167087
11
20.7259895
21
14.3167087
0
LINE
8
DEFAULT_255_1_234
10
20.7155482
20
13.7625188
11
20.8649386
21
13.7625188
0
LINE
8
DEFAULT_255_1_234
10
21.0649289
20
13.9898169
11
20.9532877
21
13.9898169
0
ARC
8
DEFAULT_255_1_234
10
21.0620155
20
14.4503713
40
0.3392876
50
270.4919872
51
281.8951556
0
ARC
8
DEFAULT_255_1_234
10
21.0861417
20
14.3401702
40
0.2264817
50
281.6691735
51
301.2943132
0
ARC
8
DEFAULT_255_1_234
10
21.1031627
20
14.3090304
40
0.1910381
50
301.7833094
51
311.7545298
0
ARC
8
DEFAULT_255_1_234
10
21.1123203
20
14.2988748
40
0.1773635
50
311.7323931
51
354.2802411
0
ARC
8
DEFAULT_255_1_234
10
21.0396828
20
14.3113722
40
0.2509385
50
353.0937916
51
0.1181479
0
ARC
8
DEFAULT_255_1_234
10
20.9935613
20
14.3161386
40
0.2970898
50
359.1805295
51
15.0453146
0
ARC
8
DEFAULT_255_1_234
10
21.128145
20
14.3553992
40
0.1569564
50
13.9577229
51
77.6713066
0
ARC
8
DEFAULT_255_1_234
10
21.0894979
20
14.2168949
40
0.3006298
50
76.1116566
51
90.7026153
0
ARC
8
DEFAULT_255_1_234
10
21.0835817
20
14.2442545
40
0.2732568
50
89.5324876
51
103.531937
0
ARC
8
DEFAULT_255_1_234
10
21.0635261
20
14.3241884
40
0.1908508
50
103.2931773
51
133.5619022
0
ARC
8
DEFAULT_255_1_234
10
21.059075
20
14.3301375
40
0.1834746
50
133.8349307
51
173.5344437
0
ARC
8
DEFAULT_255_1_234
10
21.1313793
20
14.3173213
40
0.2568033
50
172.5096846
51
180.1366907
0
ARC
8
DEFAULT_255_1_234
10
21.0362687
20
14.3207622
40
0.3103056
50
155.3484492
51
180.7484736
0
ARC
8
DEFAULT_255_1_234
10
21.0313776
20
14.3178846
40
0.3070957
50
131.5744599
51
154.4798489
0
ARC
8
DEFAULT_255_1_234
10
21.0626923
20
14.286231
40
0.3515643
50
96.9875458
51
131.9690667
0
ARC
8
DEFAULT_255_1_234
10
21.0846403
20
14.1616636
40
0.4779224
50
89.8596053
51
97.7825159
0
ARC
8
DEFAULT_255_1_234
10
21.0894466
20
14.1354616
40
0.5041361
50
78.3655447
51
90.4131539
0
ARC
8
DEFAULT_255_1_234
10
21.1252384
20
14.3013887
40
0.3344039
50
56.6229102
51
78.638727
0
ARC
8
DEFAULT_255_1_234
10
21.1467328
20
14.3389805
40
0.2912001
50
47.0253525
51
56.0854072
0
ARC
8
DEFAULT_255_1_234
10
21.1487108
20
14.3429223
40
0.2869704
50
10.9208013
51
46.7778124
0
ARC
8
DEFAULT_255_1_234
10
21.0123174
20
14.3113857
40
0.426899
50
359.6364486
51
11.6087304
0
ARC
8
DEFAULT_255_1_234
10
21.1958018
20
14.3098752
40
0.243409
50
332.3549906
51
359.7179418
0
ARC
8
DEFAULT_255_1_234
10
21.130762
20
14.3407142
40
0.3153459
50
325.2333722
51
332.8745602
0
ARC
8
DEFAULT_255_1_234
10
21.1460244
20
14.3300828
40
0.2967456
50
292.9802137
51
325.2392345
0
ARC
8
DEFAULT_255_1_234
10
21.1185617
20
14.3834863
40
0.3566604
50
292.5402179
51
293.6924929
0
ARC
8
DEFAULT_255_1_234
10
21.1578213
20
13.7380091
40
0.3307468
50
57.6435486
51
72.8625112
0
ARC
8
DEFAULT_255_1_234
10
21.1932713
20
13.7954549
40
0.2632492
50
36.7248896
51
57.4697979
0
ARC
8
DEFAULT_255_1_234
10
21.1921346
20
13.796722
40
0.2634081
50
8.0545065
51
36.356114
0
ARC
8
DEFAULT_255_1_234
10
21.1058531
20
13.7812174
40
0.3510261
50
359.8320645
51
8.5869982
0
ARC
8
DEFAULT_255_1_234
10
21.0683307
20
13.7764101
40
0.3885653
50
343.9829931
51
0.5571613
0
ARC
8
DEFAULT_255_1_234
10
21.1569504
20
13.7521438
40
0.2966924
50
311.6359546
51
343.7651759
0
ARC
8
DEFAULT_255_1_234
10
21.1191074
20
13.7948102
40
0.3537231
50
279.7829875
51
311.6255694
0
ARC
8
DEFAULT_255_1_234
10
21.088985
20
13.938528
40
0.5004971
50
269.7286406
51
280.3856417
0
ARC
8
DEFAULT_255_1_234
10
21.0827922
20
13.9343996
40
0.4963778
50
256.6828919
51
270.4412052
0
ARC
8
DEFAULT_255_1_234
10
21.0489218
20
13.7959394
40
0.3538406
50
229.4223008
51
256.8556159
0
ARC
8
DEFAULT_255_1_234
10
21.0074611
20
13.7492736
40
0.2914296
50
181.818294
51
229.6455059
0
ARC
8
DEFAULT_255_1_234
10
21.1114567
20
13.7623496
40
0.3959084
50
179.9755256
51
183.2323064
0
ARC
8
DEFAULT_255_1_234
10
21.0942313
20
13.7603037
40
0.2293034
50
179.4465117
51
196.2869258
0
ARC
8
DEFAULT_255_1_234
10
21.0454721
20
13.7469651
40
0.1787621
50
196.5661473
51
227.705904
0
ARC
8
DEFAULT_255_1_234
10
21.0618816
20
13.7653155
40
0.2033784
50
227.7652068
51
257.8762805
0
ARC
8
DEFAULT_255_1_234
10
21.0843786
20
13.8596156
40
0.3003081
50
257.4584385
51
270.426602
0
ARC
8
DEFAULT_255_1_234
10
21.0889352
20
13.8885996
40
0.329292
50
269.5962073
51
280.8789248
0
ARC
8
DEFAULT_255_1_234
10
21.1118881
20
13.7739685
40
0.2123908
50
280.6346389
51
299.8595945
0
ARC
8
DEFAULT_255_1_234
10
21.1309788
20
13.7377212
40
0.171457
50
300.3576302
51
314.5517981
0
ARC
8
DEFAULT_255_1_234
10
21.1226848
20
13.7437919
40
0.1816095
50
315.0728369
51
345.0431014
0
ARC
8
DEFAULT_255_1_234
10
21.0303662
20
13.7706841
40
0.2777492
50
344.5986631
51
357.9269593
0
ARC
8
DEFAULT_255_1_234
10
20.9407989
20
13.7768276
40
0.3674917
50
357.4748886
51
0.0231117
0
ARC
8
DEFAULT_255_1_234
10
21.0431098
20
13.7792679
40
0.2651907
50
359.5047933
51
13.4239635
0
ARC
8
DEFAULT_255_1_234
10
21.1297741
20
13.8014478
40
0.1757509
50
12.9498199
51
48.7551375
0
ARC
8
DEFAULT_255_1_234
10
21.1115475
20
13.77654
40
0.2065134
50
49.5088623
51
72.1836453
0
ARC
8
DEFAULT_255_1_234
10
21.0757628
20
13.6703291
40
0.3185836
50
71.9010081
51
84.3554254
0
ARC
8
DEFAULT_255_1_234
10
21.059626
20
13.5342326
40
0.4556151
50
84.0193428
51
89.333121
0
LINE
8
DEFAULT_255_1_234
10
21.8480233
20
14.0098963
11
21.7291536
21
14.0404169
0
LINE
8
DEFAULT_255_1_234
10
21.7291536
20
14.0404169
11
21.7885885
21
14.6235211
0
LINE
8
DEFAULT_255_1_234
10
21.7885885
20
14.6235211
11
22.3877562
21
14.6235211
0
LINE
8
DEFAULT_255_1_234
10
22.3877562
20
14.6235211
11
22.3877562
21
14.4861784
0
LINE
8
DEFAULT_255_1_234
10
22.3877562
20
14.4861784
11
21.9146868
21
14.4861784
0
LINE
8
DEFAULT_255_1_234
10
21.9146868
20
14.4861784
11
21.8793471
21
14.1673184
0
LINE
8
DEFAULT_255_1_234
10
21.6873886
20
13.7617156
11
21.827944
21
13.7617156
0
LINE
8
DEFAULT_255_1_234
10
21.8873789
20
14.0420232
11
21.8480233
21
14.0098963
0
ARC
8
DEFAULT_255_1_234
10
22.0648255
20
13.849323
40
0.3681349
50
93.7182161
51
120.2538958
0
ARC
8
DEFAULT_255_1_234
10
22.0742518
20
13.7685394
40
0.449379
50
89.9660152
51
94.2496022
0
ARC
8
DEFAULT_255_1_234
10
22.0783252
20
13.8274549
40
0.390482
50
73.8043271
51
90.5585896
0
ARC
8
DEFAULT_255_1_234
10
22.1018149
20
13.9132602
40
0.3015334
50
41.3071453
51
73.5430202
0
ARC
8
DEFAULT_255_1_234
10
22.0601976
20
13.8774324
40
0.3564457
50
13.5075983
51
41.2174222
0
ARC
8
DEFAULT_255_1_234
10
21.896018
20
13.8344486
40
0.5261351
50
1.1331335
51
13.8829381
0
ARC
8
DEFAULT_255_1_234
10
21.7548549
20
13.8268665
40
0.6674378
50
359.9919444
51
1.544251
0
ARC
8
DEFAULT_255_1_234
10
21.8825375
20
13.822728
40
0.5397702
50
347.8572367
51
0.4293338
0
ARC
8
DEFAULT_255_1_234
10
22.0575693
20
13.7830736
40
0.3603188
50
323.673004
51
348.1672506
0
ARC
8
DEFAULT_255_1_234
10
22.0870201
20
13.7651168
40
0.3259678
50
316.8171152
51
323.1492751
0
ARC
8
DEFAULT_255_1_234
10
22.093139
20
13.761446
40
0.3189975
50
281.8396411
51
316.5457803
0
ARC
8
DEFAULT_255_1_234
10
22.0555654
20
13.9169762
40
0.4789527
50
269.5770101
51
282.4214771
0
ARC
8
DEFAULT_255_1_234
10
22.0484465
20
13.8956125
40
0.45759
50
256.2427136
51
270.4486331
0
ARC
8
DEFAULT_255_1_234
10
22.0185368
20
13.7756229
40
0.3339303
50
228.9023911
51
256.3314342
0
ARC
8
DEFAULT_255_1_234
10
22.01116
20
13.7639746
40
0.32031
50
193.753695
51
228.5271154
0
ARC
8
DEFAULT_255_1_234
10
22.1349554
20
13.80028
40
0.4492253
50
184.924711
51
194.497588
0
ARC
8
DEFAULT_255_1_234
10
22.1542121
20
13.8038591
40
0.3289787
50
187.3600538
51
198.6732863
0
ARC
8
DEFAULT_255_1_234
10
22.0492415
20
13.7674674
40
0.217884
50
198.4451669
51
217.794479
0
ARC
8
DEFAULT_255_1_234
10
22.019659
20
13.7465085
40
0.1816698
50
218.2887171
51
228.5612368
0
ARC
8
DEFAULT_255_1_234
10
22.0294377
20
13.7596963
40
0.1980329
50
228.9654866
51
258.1234728
0
ARC
8
DEFAULT_255_1_234
10
22.0500087
20
13.8477833
40
0.2884748
50
257.7258293
51
270.401361
0
ARC
8
DEFAULT_255_1_234
10
22.0544974
20
13.8032821
40
0.2439788
50
269.4204404
51
286.4209037
0
ARC
8
DEFAULT_255_1_234
10
22.0693461
20
13.7493657
40
0.1880666
50
286.7251356
51
320.600362
0
ARC
8
DEFAULT_255_1_234
10
22.0310286
20
13.7804595
40
0.2374121
50
320.6712579
51
344.5441685
0
ARC
8
DEFAULT_255_1_234
10
21.9153612
20
13.8144045
40
0.3579479
50
344.2412205
51
356.7357071
0
ARC
8
DEFAULT_255_1_234
10
21.7904761
20
13.8247444
40
0.4832297
50
356.3548756
51
0.0500261
0
ARC
8
DEFAULT_255_1_234
10
21.924127
20
13.827865
40
0.3495889
50
359.5576869
51
12.953486
0
ARC
8
DEFAULT_255_1_234
10
22.0296167
20
13.8534434
40
0.2410532
50
12.6490276
51
41.6081334
0
ARC
8
DEFAULT_255_1_234
10
22.0526538
20
13.8730321
40
0.2108218
50
41.7850273
51
85.9892764
0
ARC
8
DEFAULT_255_1_234
10
22.0403275
20
13.7917462
40
0.2928454
50
84.6957577
51
90.0676183
0
ARC
8
DEFAULT_255_1_234
10
22.0379759
20
13.7248716
40
0.3597255
50
89.6804936
51
99.1614436
0
ARC
8
DEFAULT_255_1_234
10
22.017439
20
13.8476131
40
0.235281
50
98.9830931
51
113.8908934
0
ARC
8
DEFAULT_255_1_234
10
21.99448
20
13.9017587
40
0.176479
50
114.1950727
51
127.3641004
0
LINE
8
DEFAULT_255_1_234
10
23.1411332
20
14.6243243
11
23.1676379
21
14.6243243
0
LINE
8
DEFAULT_255_1_234
10
23.1676379
20
14.6243243
11
23.1676379
21
14.498226
0
LINE
8
DEFAULT_255_1_234
10
23.1676379
20
14.498226
11
23.14033
21
14.498226
0
LINE
8
DEFAULT_255_1_234
10
22.5933687
20
13.8990583
11
22.5933687
21
13.9560836
0
LINE
8
DEFAULT_255_1_234
10
22.742759
20
13.9368075
11
22.742759
21
13.8821917
0
ARC
8
DEFAULT_255_1_234
10
23.1455648
20
13.9984455
40
0.4998079
50
90.6001036
51
104.514704
0
ARC
8
DEFAULT_255_1_234
10
23.1067164
20
14.1429131
40
0.3502176
50
104.2855254
51
133.862935
0
ARC
8
DEFAULT_255_1_234
10
23.1230921
20
14.132083
40
0.3693984
50
134.5302688
51
161.6210873
0
ARC
8
DEFAULT_255_1_234
10
23.288411
20
14.0737895
40
0.5446739
50
161.2849839
51
174.2076652
0
ARC
8
DEFAULT_255_1_234
10
23.4291047
20
14.0543787
40
0.6866274
50
173.7810589
51
174.9254635
0
ARC
8
DEFAULT_255_1_234
10
22.9740879
20
13.9160839
40
0.3033419
50
95.8330959
51
138.9954921
0
ARC
8
DEFAULT_255_1_234
10
22.9964235
20
13.7882375
40
0.4328947
50
89.8753725
51
97.0544009
0
ARC
8
DEFAULT_255_1_234
10
23.0011701
20
13.8717748
40
0.3493769
50
71.6407809
51
90.6240094
0
ARC
8
DEFAULT_255_1_234
10
23.0162274
20
13.9272082
40
0.2920396
50
39.6367836
51
71.019018
0
ARC
8
DEFAULT_255_1_234
10
22.9525747
20
13.8721998
40
0.3761538
50
10.658731
51
39.9043955
0
ARC
8
DEFAULT_255_1_234
10
22.797783
20
13.8385686
40
0.5345136
50
359.682601
51
11.132623
0
ARC
8
DEFAULT_255_1_234
10
22.7937961
20
13.831501
40
0.5385081
50
347.2486944
51
0.4369317
0
ARC
8
DEFAULT_255_1_234
10
22.9605438
20
13.7913807
40
0.3670249
50
318.1409698
51
347.6118597
0
ARC
8
DEFAULT_255_1_234
10
22.9930431
20
13.7646702
40
0.3250007
50
275.6342139
51
317.8248465
0
ARC
8
DEFAULT_255_1_234
10
22.9709542
20
13.8946219
40
0.4565864
50
269.8874292
51
276.7917694
0
ARC
8
DEFAULT_255_1_234
10
22.9654613
20
13.7920743
40
0.3540676
50
246.9140195
51
270.7437342
0
ARC
8
DEFAULT_255_1_234
10
22.9661003
20
13.7778384
40
0.3412781
50
218.1665114
51
245.878116
0
ARC
8
DEFAULT_255_1_234
10
23.0540464
20
13.8514279
40
0.455911
50
191.4115814
51
218.6077802
0
ARC
8
DEFAULT_255_1_234
10
23.2478553
20
13.8948833
40
0.6545001
50
179.6345085
51
191.7836486
0
ARC
8
DEFAULT_255_1_234
10
23.806089
20
13.9627697
40
1.2127388
50
171.4525249
51
180.3158839
0
ARC
8
DEFAULT_255_1_234
10
23.3665766
20
14.0311608
40
0.7679464
50
157.9802646
51
171.6246686
0
ARC
8
DEFAULT_255_1_234
10
23.1451787
20
14.1194421
40
0.5296008
50
141.4298019
51
157.854097
0
ARC
8
DEFAULT_255_1_234
10
23.0810108
20
14.1648381
40
0.4511509
50
102.8715806
51
140.8564722
0
ARC
8
DEFAULT_255_1_234
10
23.1457723
20
13.9208552
40
0.7034845
50
90.3778349
51
103.5869322
0
ARC
8
DEFAULT_255_1_234
10
22.9719499
20
13.860373
40
0.2370698
50
89.8751008
51
126.2071704
0
ARC
8
DEFAULT_255_1_234
10
22.9765289
20
13.8449303
40
0.2522934
50
124.9745049
51
144.895901
0
ARC
8
DEFAULT_255_1_234
10
22.9589479
20
13.859256
40
0.2296779
50
145.2974905
51
160.2660252
0
ARC
8
DEFAULT_255_1_234
10
23.2662018
20
13.8790071
40
0.5234525
50
179.6514266
51
190.2855912
0
ARC
8
DEFAULT_255_1_234
10
23.0968155
20
13.8470786
40
0.3510893
50
190.0945431
51
207.5098196
0
ARC
8
DEFAULT_255_1_234
10
23.0402425
20
13.8201623
40
0.288489
50
207.9583163
51
216.3251085
0
ARC
8
DEFAULT_255_1_234
10
23.0062533
20
13.7922105
40
0.2445587
50
215.7661442
51
232.5456785
0
ARC
8
DEFAULT_255_1_234
10
22.9679516
20
13.7435482
40
0.1826382
50
232.8005391
51
270.6605633
0
ARC
8
DEFAULT_255_1_234
10
22.9725217
20
13.7799612
40
0.2190529
50
269.35537
51
288.4744281
0
ARC
8
DEFAULT_255_1_234
10
22.9818114
20
13.7450118
40
0.1829749
50
289.1833337
51
322.9683818
0
ARC
8
DEFAULT_255_1_234
10
22.9206636
20
13.7932391
40
0.2608399
50
322.6007884
51
346.5182367
0
ARC
8
DEFAULT_255_1_234
10
22.8049232
20
13.8227616
40
0.3802777
50
346.2582162
51
358.7741648
0
ARC
8
DEFAULT_255_1_234
10
22.7030901
20
13.8282965
40
0.4822176
50
358.3755224
51
0.0098023
0
ARC
8
DEFAULT_255_1_234
10
22.7787088
20
13.8310657
40
0.4066078
50
359.6214041
51
11.2839074
0
ARC
8
DEFAULT_255_1_234
10
22.9064235
20
13.8577066
40
0.2761514
50
11.0482309
51
31.8146458
0
ARC
8
DEFAULT_255_1_234
10
22.9373278
20
13.8744584
40
0.2410679
50
32.3035391
51
38.082671
0
ARC
8
DEFAULT_255_1_234
10
22.9793938
20
13.9125662
40
0.1844966
50
36.825067
51
85.7415724
0
ARC
8
DEFAULT_255_1_234
10
22.9726771
20
13.8625301
40
0.2349122
50
85.0140713
51
90.0513278
0
ENDSEC
0
EOF