0
SECTION
2
HEADER
9
$MEASUREMENT
70
1
0
ENDSEC
0
SECTION
2
TABLES
0
TABLE
2
LTYPE
0
LTYPE
72
65
70
64
2
CONTINUOUS
3
______
73
0
40
0
0
ENDTAB
0
TABLE
2
LAYER
0
LAYER
2
DEFAULT_255_2_778
70
0
62
255
6
CONTINUOUS
0
LAYER
2
DEFAULT_255_1_234
70
0
62
255
6
CONTINUOUS
0
ENDTAB
0
ENDSEC
0
SECTION
2
ENTITIES
0
LINE
8
DEFAULT_255_2_778
10
9.3924337
20
9.1281499
11
35.8507337
21
9.1281499
0
LINE
8
DEFAULT_255_2_778
10
35.8507337
20
9.1281499
11
35.8507337
21
1.1906499
0
LINE
8
DEFAULT_255_2_778
10
35.8507337
20
1.1906499
11
9.3924337
21
1.1906499
0
LINE
8
DEFAULT_255_2_778
10
9.3924337
20
1.1906499
11
9.3924337
21
9.1281499
0
LINE
8
DEFAULT_255_2_778
10
12.0382834
20
1.1906499
11
14.6840834
21
9.1281499
0
LINE
8
DEFAULT_255_2_778
10
14.6840834
20
9.1281499
11
14.6840834
21
7.0114499
0
LINE
8
DEFAULT_255_2_778
10
14.6840834
20
7.0114499
11
13.4934834
21
7.5406499
0
LINE
8
DEFAULT_255_2_778
10
13.4934834
20
7.5406499
11
14.6840834
21
9.1281499
0
LINE
8
DEFAULT_255_2_778
10
12.0382501
20
3.3073499
11
13.3611501
21
2.7781499
0
LINE
8
DEFAULT_255_2_778
10
13.3611501
20
2.7781499
11
12.0382501
21
1.1906499
0
LINE
8
DEFAULT_255_2_778
10
12.0382501
20
1.1906499
11
12.0382501
21
3.3073499
0
LINE
8
DEFAULT_255_2_778
10
17.3299501
20
1.1906499
11
19.9757501
21
9.1281499
0
LINE
8
DEFAULT_255_2_778
10
19.9757501
20
9.1281499
11
19.9757501
21
7.0114499
0
LINE
8
DEFAULT_255_2_778
10
19.9757501
20
7.0114499
11
18.7851501
21
7.5406499
0
LINE
8
DEFAULT_255_2_778
10
18.7851501
20
7.5406499
11
19.9757501
21
9.1281499
0
LINE
8
DEFAULT_255_2_778
10
17.3299417
20
3.3073333
11
18.6528417
21
2.7781333
0
LINE
8
DEFAULT_255_2_778
10
18.6528417
20
2.7781333
11
17.3299417
21
1.1906333
0
LINE
8
DEFAULT_255_2_778
10
17.3299417
20
1.1906333
11
17.3299417
21
3.3073333
0
LINE
8
DEFAULT_255_2_778
10
12.0383
20
9.1281166
11
12.0383
21
6.4823166
0
LINE
8
DEFAULT_255_2_778
10
12.6996918
20
6.4823166
11
11.3767918
21
6.4823166
0
LINE
8
DEFAULT_255_2_778
10
17.4621918
20
9.1281166
11
17.4621918
21
6.4823166
0
LINE
8
DEFAULT_255_2_778
10
18.1236834
20
6.4823499
11
16.8007834
21
6.4823499
0
LINE
8
DEFAULT_255_2_778
10
22.6215834
20
9.1281499
11
22.6215834
21
1.1906499
0
LINE
8
DEFAULT_255_2_778
10
25.2674417
20
1.1906499
11
25.2674417
21
9.1281499
0
LINE
8
DEFAULT_255_2_778
10
25.2674417
20
9.1281499
11
24.6059417
21
7.1437499
0
LINE
8
DEFAULT_255_2_778
10
24.6059417
20
7.1437499
11
25.9288417
21
7.1437499
0
LINE
8
DEFAULT_255_2_778
10
25.9288417
20
7.1437499
11
25.2674417
21
9.1281499
0
LINE
8
DEFAULT_255_2_778
10
24.6060084
20
3.1750499
11
25.9289084
21
3.1750499
0
LINE
8
DEFAULT_255_2_778
10
25.9289084
20
3.1750499
11
25.2675084
21
1.1906499
0
LINE
8
DEFAULT_255_2_778
10
25.2675084
20
1.1906499
11
24.6060084
21
3.1750499
0
LINE
8
DEFAULT_255_2_778
10
30.5591084
20
1.1906499
11
30.5591084
21
9.1281499
0
LINE
8
DEFAULT_255_2_778
10
30.5591084
20
9.1281499
11
29.8977084
21
7.1437499
0
LINE
8
DEFAULT_255_2_778
10
29.8977084
20
7.1437499
11
31.2206084
21
7.1437499
0
LINE
8
DEFAULT_255_2_778
10
31.2206084
20
7.1437499
11
30.5591084
21
9.1281499
0
LINE
8
DEFAULT_255_2_778
10
29.8976417
20
3.1749875
11
31.2205417
21
3.1749875
0
LINE
8
DEFAULT_255_2_778
10
31.2205417
20
3.1749875
11
30.5591417
21
1.1905875
0
LINE
8
DEFAULT_255_2_778
10
30.5591417
20
1.1905875
11
29.8976417
21
3.1749875
0
LINE
8
DEFAULT_255_2_778
10
27.9133
20
13.0968916
11
27.9133
21
6.4822916
0
LINE
8
DEFAULT_255_2_778
10
28.5747376
20
6.4822916
11
27.2518376
21
6.4822916
0
LINE
8
DEFAULT_255_2_778
10
33.2049376
20
13.0968916
11
33.2049376
21
6.4822916
0
LINE
8
DEFAULT_255_2_778
10
33.8664629
20
6.4822998
11
32.5435629
21
6.4822998
0
LINE
8
DEFAULT_255_2_778
10
25.2674629
20
9.1281998
11
25.2674629
21
13.0968998
0
LINE
8
DEFAULT_255_2_778
10
30.5591629
20
9.1281998
11
30.5591629
21
13.0968998
0
LINE
8
DEFAULT_255_2_778
10
30.5591629
20
1.1906998
11
30.5591629
21
-2.7781002
0
LINE
8
DEFAULT_255_2_778
10
25.2674629
20
1.1906998
11
25.2674629
21
-2.7781002
0
LINE
8
DEFAULT_255_2_778
10
9.3924629
20
2.5135998
11
8.0695629
21
2.5135998
0
LINE
8
DEFAULT_255_2_778
10
6.7466417
20
1.1906166
11
8.0695417
21
2.5135166
0
LINE
8
DEFAULT_255_2_778
10
8.0695417
20
2.5135166
11
6.7466417
21
3.8364166
0
LINE
8
DEFAULT_255_2_778
10
6.7466417
20
3.8364166
11
6.7466417
21
1.1906166
0
LINE
8
DEFAULT_255_2_778
10
6.7466192
20
2.5135
11
4.1008192
21
2.5135
0
LINE
8
DEFAULT_255_2_778
10
35.8508192
20
2.4606
11
36.1448192
21
4.3656
0
LINE
8
DEFAULT_255_2_778
10
36.1448192
20
4.3656
11
36.5858192
21
1.1906
0
LINE
8
DEFAULT_255_2_778
10
36.5858192
20
1.1906
11
37.0269192
21
4.3656
0
LINE
8
DEFAULT_255_2_778
10
37.0269192
20
4.3656
11
37.4679192
21
1.1906
0
LINE
8
DEFAULT_255_2_778
10
37.4679192
20
1.1906
11
37.9090192
21
4.3656
0
LINE
8
DEFAULT_255_2_778
10
37.9090192
20
4.3656
11
38.3501192
21
1.1906
0
LINE
8
DEFAULT_255_2_778
10
38.3501192
20
1.1906
11
38.4972192
21
2.4606
0
LINE
8
DEFAULT_255_1_234
10
23.0339137
20
-0.6674567
11
23.0339137
21
-1.8425
0
LINE
8
DEFAULT_255_1_234
10
23.0339137
20
-1.8425
11
22.8845234
21
-1.8425
0
LINE
8
DEFAULT_255_1_234
10
22.8845234
20
-1.8425
11
22.8845234
21
-0.8521867
0
LINE
8
DEFAULT_255_1_234
10
22.8845234
20
-0.8521867
11
22.5849396
21
-0.9622215
0
LINE
8
DEFAULT_255_1_234
10
22.5849396
20
-0.9622215
11
22.5849396
21
-0.8272883
0
LINE
8
DEFAULT_255_1_234
10
22.5849396
20
-0.8272883
11
23.0106217
21
-0.6674567
0
LINE
8
DEFAULT_255_1_234
10
23.0106217
20
-0.6674567
11
23.0339137
21
-0.6674567
0
LINE
8
DEFAULT_255_1_234
10
24.0965127
20
-0.6730789
11
24.0965127
21
-1.449748
0
LINE
8
DEFAULT_255_1_234
10
24.0965127
20
-1.449748
11
24.2587538
21
-1.449748
0
LINE
8
DEFAULT_255_1_234
10
24.2587538
20
-1.449748
11
24.2587538
21
-1.5710272
0
LINE
8
DEFAULT_255_1_234
10
24.2587538
20
-1.5710272
11
24.0965127
21
-1.5710272
0
LINE
8
DEFAULT_255_1_234
10
24.0965127
20
-1.5710272
11
24.0965127
21
-1.8425
0
LINE
8
DEFAULT_255_1_234
10
24.0965127
20
-1.8425
11
23.9471224
21
-1.8425
0
LINE
8
DEFAULT_255_1_234
10
23.9471224
20
-1.8425
11
23.9471224
21
-1.5710272
0
LINE
8
DEFAULT_255_1_234
10
23.9471224
20
-1.5710272
11
23.4146181
21
-1.5710272
0
LINE
8
DEFAULT_255_1_234
10
23.4146181
20
-1.5710272
11
23.4146181
21
-1.4834813
0
LINE
8
DEFAULT_255_1_234
10
23.4146181
20
-1.4834813
11
23.9382875
21
-0.6730789
0
LINE
8
DEFAULT_255_1_234
10
23.9382875
20
-0.6730789
11
24.0965127
21
-0.6730789
0
LINE
8
DEFAULT_255_1_234
10
23.9294525
20
-0.9084088
11
23.5832846
21
-1.449748
0
LINE
8
DEFAULT_255_1_234
10
23.5832846
20
-1.449748
11
23.9471224
21
-1.449748
0
LINE
8
DEFAULT_255_1_234
10
23.9471224
20
-1.449748
11
23.9471224
21
-0.8762819
0
LINE
8
DEFAULT_255_1_234
10
23.9471224
20
-0.8762819
11
23.9294525
21
-0.9084088
0
LINE
8
DEFAULT_255_1_234
10
23.2270119
20
10.9295792
11
23.2270119
21
10.8083
0
LINE
8
DEFAULT_255_1_234
10
23.2270119
20
10.8083
11
22.460784
21
10.8083
0
LINE
8
DEFAULT_255_1_234
10
22.460784
20
10.8083
11
22.460784
21
10.9151221
0
LINE
8
DEFAULT_255_1_234
10
22.460784
20
10.9151221
11
22.8655836
21
11.3648995
0
LINE
8
DEFAULT_255_1_234
10
22.5868823
20
11.6331595
11
22.4382952
21
11.6331595
0
LINE
8
DEFAULT_255_1_234
10
22.9531296
20
11.2693218
11
22.6398918
21
10.9295792
0
LINE
8
DEFAULT_255_1_234
10
22.6398918
20
10.9295792
11
23.2270119
21
10.9295792
0
ARC
8
DEFAULT_255_1_234
10
21.516567
20
12.5578527
40
1.8008286
50
318.5132453
51
320.7828378
0
ARC
8
DEFAULT_255_1_234
10
22.0452644
20
12.1275426
40
1.1191493
50
320.7372736
51
323.9737074
0
ARC
8
DEFAULT_255_1_234
10
22.4372501
20
11.8435361
40
0.6350923
50
323.8961724
51
328.6421089
0
ARC
8
DEFAULT_255_1_234
10
22.6419096
20
11.7173031
40
0.3946393
50
328.8299013
51
331.789948
0
ARC
8
DEFAULT_255_1_234
10
22.7416274
20
11.6658509
40
0.2824501
50
331.4255242
51
352.9364833
0
ARC
8
DEFAULT_255_1_234
10
22.7552775
20
11.6627976
40
0.2685315
50
353.2248685
51
0.0169286
0
ARC
8
DEFAULT_255_1_234
10
22.7762652
20
11.665095
40
0.2475536
50
359.4866256
51
15.9339782
0
ARC
8
DEFAULT_255_1_234
10
22.8269637
20
11.6787286
40
0.1950618
50
16.1714718
51
43.5284424
0
ARC
8
DEFAULT_255_1_234
10
22.8346946
20
11.6864573
40
0.184134
50
43.4415429
51
83.1661404
0
ARC
8
DEFAULT_255_1_234
10
22.8212864
20
11.6127771
40
0.258926
50
82.160215
51
90.1505798
0
ARC
8
DEFAULT_255_1_234
10
22.8181291
20
11.5590865
40
0.3126255
50
89.5460705
51
102.5418777
0
ARC
8
DEFAULT_255_1_234
10
22.7938377
20
11.6621665
40
0.2067346
50
102.1739365
51
129.2061916
0
ARC
8
DEFAULT_255_1_234
10
22.7859449
20
11.6746094
40
0.1921118
50
129.7279328
51
135.7542026
0
ARC
8
DEFAULT_255_1_234
10
22.7980977
20
11.6649045
40
0.2075944
50
136.175737
51
166.3674722
0
ARC
8
DEFAULT_255_1_234
10
22.8987896
20
11.6379182
40
0.3118201
50
165.9092917
51
178.8683903
0
ARC
8
DEFAULT_255_1_234
10
22.9852757
20
11.6332179
40
0.3983935
50
178.438168
51
180.0083905
0
ARC
8
DEFAULT_255_1_234
10
22.8451359
20
11.6371231
40
0.4068601
50
163.2878735
51
180.5581814
0
ARC
8
DEFAULT_255_1_234
10
22.7649621
20
11.659184
40
0.3237344
50
133.454115
51
162.9470031
0
ARC
8
DEFAULT_255_1_234
10
22.7828162
20
11.6402
40
0.349795
50
100.7869394
51
133.4384016
0
ARC
8
DEFAULT_255_1_234
10
22.8175934
20
11.4853319
40
0.5084616
50
89.6605301
51
101.3704185
0
ARC
8
DEFAULT_255_1_234
10
22.8242273
20
11.4914496
40
0.502348
50
78.2171172
51
90.4130393
0
ARC
8
DEFAULT_255_1_234
10
22.8597351
20
11.6538637
40
0.3361092
50
55.9268222
51
78.4888551
0
ARC
8
DEFAULT_255_1_234
10
22.8793791
20
11.6877324
40
0.2970617
50
47.9292255
51
55.4054003
0
ARC
8
DEFAULT_255_1_234
10
22.8895352
20
11.6980502
40
0.2825983
50
4.3347696
51
48.0560701
0
ARC
8
DEFAULT_255_1_234
10
22.7799745
20
11.6810601
40
0.393225
50
359.925209
51
5.5967654
0
ARC
8
DEFAULT_255_1_234
10
22.8228637
20
11.6866816
40
0.3503892
50
337.8914096
51
358.9967724
0
ARC
8
DEFAULT_255_1_234
10
22.5515049
20
11.7913706
40
0.6412172
50
326.9135351
51
338.3505194
0
ARC
8
DEFAULT_255_1_234
10
22.1529353
20
12.0468284
40
1.1146189
50
319.6472867
51
327.095818
0
ARC
8
DEFAULT_255_1_234
10
21.7696356
20
12.363
40
1.6114559
50
317.2586784
51
319.9046139
0
LINE
8
DEFAULT_255_1_234
10
23.6004877
20
11.3440169
11
23.6004877
21
11.4652962
0
LINE
8
DEFAULT_255_1_234
10
23.6004877
20
11.4652962
11
23.7121289
21
11.4652962
0
LINE
8
DEFAULT_255_1_234
10
23.5217767
20
11.6709087
11
23.3731895
21
11.6709087
0
LINE
8
DEFAULT_255_1_234
10
23.3627482
20
11.1167187
11
23.5121386
21
11.1167187
0
LINE
8
DEFAULT_255_1_234
10
23.7121289
20
11.3440169
11
23.6004877
21
11.3440169
0
ARC
8
DEFAULT_255_1_234
10
23.7092155
20
11.8045713
40
0.3392876
50
270.4919872
51
281.8951556
0
ARC
8
DEFAULT_255_1_234
10
23.7333417
20
11.6943702
40
0.2264817
50
281.6691735
51
301.2943132
0
ARC
8
DEFAULT_255_1_234
10
23.7503627
20
11.6632304
40
0.1910381
50
301.7833094
51
311.7545298
0
ARC
8
DEFAULT_255_1_234
10
23.7595203
20
11.6530748
40
0.1773635
50
311.7323931
51
354.2802411
0
ARC
8
DEFAULT_255_1_234
10
23.6868828
20
11.6655722
40
0.2509385
50
353.0937916
51
0.1181479
0
ARC
8
DEFAULT_255_1_234
10
23.6407613
20
11.6703386
40
0.2970898
50
359.1805295
51
15.0453146
0
ARC
8
DEFAULT_255_1_234
10
23.775345
20
11.7095992
40
0.1569564
50
13.9577229
51
77.6713066
0
ARC
8
DEFAULT_255_1_234
10
23.7366979
20
11.5710949
40
0.3006298
50
76.1116566
51
90.7026153
0
ARC
8
DEFAULT_255_1_234
10
23.7307817
20
11.5984545
40
0.2732568
50
89.5324876
51
103.531937
0
ARC
8
DEFAULT_255_1_234
10
23.7107261
20
11.6783884
40
0.1908508
50
103.2931773
51
133.5619022
0
ARC
8
DEFAULT_255_1_234
10
23.706275
20
11.6843375
40
0.1834746
50
133.8349307
51
173.5344437
0
ARC
8
DEFAULT_255_1_234
10
23.7785793
20
11.6715213
40
0.2568033
50
172.5096846
51
180.1366907
0
ARC
8
DEFAULT_255_1_234
10
23.6834687
20
11.6749622
40
0.3103056
50
155.3484492
51
180.7484736
0
ARC
8
DEFAULT_255_1_234
10
23.6785776
20
11.6720846
40
0.3070957
50
131.5744599
51
154.4798489
0
ARC
8
DEFAULT_255_1_234
10
23.7098923
20
11.640431
40
0.3515643
50
96.9875458
51
131.9690667
0
ARC
8
DEFAULT_255_1_234
10
23.7318403
20
11.5158636
40
0.4779224
50
89.8596053
51
97.7825159
0
ARC
8
DEFAULT_255_1_234
10
23.7366466
20
11.4896616
40
0.5041361
50
78.3655447
51
90.4131539
0
ARC
8
DEFAULT_255_1_234
10
23.7724384
20
11.6555887
40
0.3344039
50
56.6229102
51
78.638727
0
ARC
8
DEFAULT_255_1_234
10
23.7939328
20
11.6931805
40
0.2912001
50
47.0253525
51
56.0854072
0
ARC
8
DEFAULT_255_1_234
10
23.7959108
20
11.6971223
40
0.2869704
50
10.9208013
51
46.7778124
0
ARC
8
DEFAULT_255_1_234
10
23.6595174
20
11.6655857
40
0.426899
50
359.6364486
51
11.6087304
0
ARC
8
DEFAULT_255_1_234
10
23.8430018
20
11.6640752
40
0.243409
50
332.3549906
51
359.7179418
0
ARC
8
DEFAULT_255_1_234
10
23.777962
20
11.6949142
40
0.3153459
50
325.2333722
51
332.8745602
0
ARC
8
DEFAULT_255_1_234
10
23.7932244
20
11.6842828
40
0.2967456
50
292.9802137
51
325.2392345
0
ARC
8
DEFAULT_255_1_234
10
23.7657617
20
11.7376863
40
0.3566604
50
292.5402179
51
293.6924929
0
ARC
8
DEFAULT_255_1_234
10
23.8050213
20
11.0922091
40
0.3307468
50
57.6435486
51
72.8625112
0
ARC
8
DEFAULT_255_1_234
10
23.8404713
20
11.1496549
40
0.2632492
50
36.7248896
51
57.4697979
0
ARC
8
DEFAULT_255_1_234
10
23.8393346
20
11.150922
40
0.2634081
50
8.0545065
51
36.356114
0
ARC
8
DEFAULT_255_1_234
10
23.7530531
20
11.1354174
40
0.3510261
50
359.8320645
51
8.5869982
0
ARC
8
DEFAULT_255_1_234
10
23.7155307
20
11.1306101
40
0.3885653
50
343.9829931
51
0.5571613
0
ARC
8
DEFAULT_255_1_234
10
23.8041504
20
11.1063438
40
0.2966924
50
311.6359546
51
343.7651759
0
ARC
8
DEFAULT_255_1_234
10
23.7663074
20
11.1490102
40
0.3537231
50
279.7829875
51
311.6255694
0
ARC
8
DEFAULT_255_1_234
10
23.736185
20
11.292728
40
0.5004971
50
269.7286406
51
280.3856417
0
ARC
8
DEFAULT_255_1_234
10
23.7299922
20
11.2885996
40
0.4963778
50
256.6828919
51
270.4412052
0
ARC
8
DEFAULT_255_1_234
10
23.6961218
20
11.1501394
40
0.3538406
50
229.4223008
51
256.8556159
0
ARC
8
DEFAULT_255_1_234
10
23.6546611
20
11.1034736
40
0.2914296
50
181.818294
51
229.6455059
0
ARC
8
DEFAULT_255_1_234
10
23.7586567
20
11.1165496
40
0.3959084
50
179.9755256
51
183.2323064
0
ARC
8
DEFAULT_255_1_234
10
23.7414313
20
11.1145037
40
0.2293034
50
179.4465117
51
196.2869258
0
ARC
8
DEFAULT_255_1_234
10
23.6926721
20
11.1011651
40
0.1787621
50
196.5661473
51
227.705904
0
ARC
8
DEFAULT_255_1_234
10
23.7090816
20
11.1195155
40
0.2033784
50
227.7652068
51
257.8762805
0
ARC
8
DEFAULT_255_1_234
10
23.7315786
20
11.2138156
40
0.3003081
50
257.4584385
51
270.426602
0
ARC
8
DEFAULT_255_1_234
10
23.7361352
20
11.2427996
40
0.329292
50
269.5962073
51
280.8789248
0
ARC
8
DEFAULT_255_1_234
10
23.7590881
20
11.1281685
40
0.2123908
50
280.6346389
51
299.8595945
0
ARC
8
DEFAULT_255_1_234
10
23.7781788
20
11.0919212
40
0.171457
50
300.3576302
51
314.5517981
0
ARC
8
DEFAULT_255_1_234
10
23.7698848
20
11.0979919
40
0.1816095
50
315.0728369
51
345.0431014
0
ARC
8
DEFAULT_255_1_234
10
23.6775662
20
11.1248841
40
0.2777492
50
344.5986631
51
357.9269593
0
ARC
8
DEFAULT_255_1_234
10
23.5879989
20
11.1310276
40
0.3674917
50
357.4748886
51
0.0231117
0
ARC
8
DEFAULT_255_1_234
10
23.6903098
20
11.1334679
40
0.2651907
50
359.5047933
51
13.4239635
0
ARC
8
DEFAULT_255_1_234
10
23.7769741
20
11.1556478
40
0.1757509
50
12.9498199
51
48.7551375
0
ARC
8
DEFAULT_255_1_234
10
23.7587475
20
11.13074
40
0.2065134
50
49.5088623
51
72.1836453
0
ARC
8
DEFAULT_255_1_234
10
23.7229628
20
11.0245291
40
0.3185836
50
71.9010081
51
84.3554254
0
ARC
8
DEFAULT_255_1_234
10
23.706826
20
10.8884326
40
0.4556151
50
84.0193428
51
89.333121
0
LINE
8
DEFAULT_255_1_234
10
24.4952233
20
11.3640963
11
24.3763536
21
11.3946169
0
LINE
8
DEFAULT_255_1_234
10
24.3763536
20
11.3946169
11
24.4357885
21
11.9777211
0
LINE
8
DEFAULT_255_1_234
10
24.4357885
20
11.9777211
11
25.0349562
21
11.9777211
0
LINE
8
DEFAULT_255_1_234
10
25.0349562
20
11.9777211
11
25.0349562
21
11.8403784
0
LINE
8
DEFAULT_255_1_234
10
25.0349562
20
11.8403784
11
24.5618868
21
11.8403784
0
LINE
8
DEFAULT_255_1_234
10
24.5618868
20
11.8403784
11
24.5265471
21
11.5215184
0
LINE
8
DEFAULT_255_1_234
10
24.3345886
20
11.1159156
11
24.475144
21
11.1159156
0
LINE
8
DEFAULT_255_1_234
10
24.5345789
20
11.3962232
11
24.4952233
21
11.3640963
0
ARC
8
DEFAULT_255_1_234
10
24.7120255
20
11.203523
40
0.3681349
50
93.7182161
51
120.2538958
0
ARC
8
DEFAULT_255_1_234
10
24.7214518
20
11.1227394
40
0.449379
50
89.9660152
51
94.2496022
0
ARC
8
DEFAULT_255_1_234
10
24.7255252
20
11.1816549
40
0.390482
50
73.8043271
51
90.5585896
0
ARC
8
DEFAULT_255_1_234
10
24.7490149
20
11.2674602
40
0.3015334
50
41.3071453
51
73.5430202
0
ARC
8
DEFAULT_255_1_234
10
24.7073976
20
11.2316324
40
0.3564457
50
13.5075983
51
41.2174222
0
ARC
8
DEFAULT_255_1_234
10
24.543218
20
11.1886486
40
0.5261351
50
1.1331335
51
13.8829381
0
ARC
8
DEFAULT_255_1_234
10
24.4020549
20
11.1810665
40
0.6674378
50
359.9919444
51
1.544251
0
ARC
8
DEFAULT_255_1_234
10
24.5297375
20
11.176928
40
0.5397702
50
347.8572367
51
0.4293338
0
ARC
8
DEFAULT_255_1_234
10
24.7047693
20
11.1372736
40
0.3603188
50
323.673004
51
348.1672506
0
ARC
8
DEFAULT_255_1_234
10
24.7342201
20
11.1193168
40
0.3259678
50
316.8171152
51
323.1492751
0
ARC
8
DEFAULT_255_1_234
10
24.740339
20
11.115646
40
0.3189975
50
281.8396411
51
316.5457803
0
ARC
8
DEFAULT_255_1_234
10
24.7027654
20
11.2711762
40
0.4789527
50
269.5770101
51
282.4214771
0
ARC
8
DEFAULT_255_1_234
10
24.6956465
20
11.2498125
40
0.45759
50
256.2427136
51
270.4486331
0
ARC
8
DEFAULT_255_1_234
10
24.6657368
20
11.1298229
40
0.3339303
50
228.9023911
51
256.3314342
0
ARC
8
DEFAULT_255_1_234
10
24.65836
20
11.1181746
40
0.32031
50
193.753695
51
228.5271154
0
ARC
8
DEFAULT_255_1_234
10
24.7821554
20
11.15448
40
0.4492253
50
184.924711
51
194.497588
0
ARC
8
DEFAULT_255_1_234
10
24.8014121
20
11.1580591
40
0.3289787
50
187.3600538
51
198.6732863
0
ARC
8
DEFAULT_255_1_234
10
24.6964415
20
11.1216674
40
0.217884
50
198.4451669
51
217.794479
0
ARC
8
DEFAULT_255_1_234
10
24.666859
20
11.1007085
40
0.1816698
50
218.2887171
51
228.5612368
0
ARC
8
DEFAULT_255_1_234
10
24.6766377
20
11.1138963
40
0.1980329
50
228.9654866
51
258.1234728
0
ARC
8
DEFAULT_255_1_234
10
24.6972087
20
11.2019833
40
0.2884748
50
257.7258293
51
270.401361
0
ARC
8
DEFAULT_255_1_234
10
24.7016974
20
11.1574821
40
0.2439788
50
269.4204404
51
286.4209037
0
ARC
8
DEFAULT_255_1_234
10
24.7165461
20
11.1035657
40
0.1880666
50
286.7251356
51
320.600362
0
ARC
8
DEFAULT_255_1_234
10
24.6782286
20
11.1346595
40
0.2374121
50
320.6712579
51
344.5441685
0
ARC
8
DEFAULT_255_1_234
10
24.5625612
20
11.1686045
40
0.3579479
50
344.2412205
51
356.7357071
0
ARC
8
DEFAULT_255_1_234
10
24.4376761
20
11.1789444
40
0.4832297
50
356.3548756
51
0.0500261
0
ARC
8
DEFAULT_255_1_234
10
24.571327
20
11.182065
40
0.3495889
50
359.5576869
51
12.953486
0
ARC
8
DEFAULT_255_1_234
10
24.6768167
20
11.2076434
40
0.2410532
50
12.6490276
51
41.6081334
0
ARC
8
DEFAULT_255_1_234
10
24.6998538
20
11.2272321
40
0.2108218
50
41.7850273
51
85.9892764
0
ARC
8
DEFAULT_255_1_234
10
24.6875275
20
11.1459462
40
0.2928454
50
84.6957577
51
90.0676183
0
ARC
8
DEFAULT_255_1_234
10
24.6851759
20
11.0790716
40
0.3597255
50
89.6804936
51
99.1614436
0
ARC
8
DEFAULT_255_1_234
10
24.664639
20
11.2018131
40
0.235281
50
98.9830931
51
113.8908934
0
ARC
8
DEFAULT_255_1_234
10
24.64168
20
11.2559587
40
0.176479
50
114.1950727
51
127.3641004
0
LINE
8
DEFAULT_255_1_234
10
25.7883332
20
11.9785243
11
25.8148379
21
11.9785243
0
LINE
8
DEFAULT_255_1_234
10
25.8148379
20
11.9785243
11
25.8148379
21
11.852426
0
LINE
8
DEFAULT_255_1_234
10
25.8148379
20
11.852426
11
25.78753
21
11.852426
0
LINE
8
DEFAULT_255_1_234
10
25.2405687
20
11.2532583
11
25.2405687
21
11.3102836
0
LINE
8
DEFAULT_255_1_234
10
25.389959
20
11.2910075
11
25.389959
21
11.2363917
0
ARC
8
DEFAULT_255_1_234
10
25.7927648
20
11.3526455
40
0.4998079
50
90.6001036
51
104.514704
0
ARC
8
DEFAULT_255_1_234
10
25.7539164
20
11.4971131
40
0.3502176
50
104.2855254
51
133.862935
0
ARC
8
DEFAULT_255_1_234
10
25.7702921
20
11.486283
40
0.3693984
50
134.5302688
51
161.6210873
0
ARC
8
DEFAULT_255_1_234
10
25.935611
20
11.4279895
40
0.5446739
50
161.2849839
51
174.2076652
0
ARC
8
DEFAULT_255_1_234
10
26.0763047
20
11.4085787
40
0.6866274
50
173.7810589
51
174.9254635
0
ARC
8
DEFAULT_255_1_234
10
25.6212879
20
11.2702839
40
0.3033419
50
95.8330959
51
138.9954921
0
ARC
8
DEFAULT_255_1_234
10
25.6436235
20
11.1424375
40
0.4328947
50
89.8753725
51
97.0544009
0
ARC
8
DEFAULT_255_1_234
10
25.6483701
20
11.2259748
40
0.3493769
50
71.6407809
51
90.6240094
0
ARC
8
DEFAULT_255_1_234
10
25.6634274
20
11.2814082
40
0.2920396
50
39.6367836
51
71.019018
0
ARC
8
DEFAULT_255_1_234
10
25.5997747
20
11.2263998
40
0.3761538
50
10.658731
51
39.9043955
0
ARC
8
DEFAULT_255_1_234
10
25.444983
20
11.1927686
40
0.5345136
50
359.682601
51
11.132623
0
ARC
8
DEFAULT_255_1_234
10
25.4409961
20
11.185701
40
0.5385081
50
347.2486944
51
0.4369317
0
ARC
8
DEFAULT_255_1_234
10
25.6077438
20
11.1455807
40
0.3670249
50
318.1409698
51
347.6118597
0
ARC
8
DEFAULT_255_1_234
10
25.6402431
20
11.1188702
40
0.3250007
50
275.6342139
51
317.8248465
0
ARC
8
DEFAULT_255_1_234
10
25.6181542
20
11.2488219
40
0.4565864
50
269.8874292
51
276.7917694
0
ARC
8
DEFAULT_255_1_234
10
25.6126613
20
11.1462743
40
0.3540676
50
246.9140195
51
270.7437342
0
ARC
8
DEFAULT_255_1_234
10
25.6133003
20
11.1320384
40
0.3412781
50
218.1665114
51
245.878116
0
ARC
8
DEFAULT_255_1_234
10
25.7012464
20
11.2056279
40
0.455911
50
191.4115814
51
218.6077802
0
ARC
8
DEFAULT_255_1_234
10
25.8950553
20
11.2490833
40
0.6545001
50
179.6345085
51
191.7836486
0
ARC
8
DEFAULT_255_1_234
10
26.453289
20
11.3169697
40
1.2127388
50
171.4525249
51
180.3158839
0
ARC
8
DEFAULT_255_1_234
10
26.0137766
20
11.3853608
40
0.7679464
50
157.9802646
51
171.6246686
0
ARC
8
DEFAULT_255_1_234
10
25.7923787
20
11.4736421
40
0.5296008
50
141.4298019
51
157.854097
0
ARC
8
DEFAULT_255_1_234
10
25.7282108
20
11.5190381
40
0.4511509
50
102.8715806
51
140.8564722
0
ARC
8
DEFAULT_255_1_234
10
25.7929723
20
11.2750552
40
0.7034845
50
90.3778349
51
103.5869322
0
ARC
8
DEFAULT_255_1_234
10
25.6191499
20
11.214573
40
0.2370698
50
89.8751008
51
126.2071704
0
ARC
8
DEFAULT_255_1_234
10
25.6237289
20
11.1991303
40
0.2522934
50
124.9745049
51
144.895901
0
ARC
8
DEFAULT_255_1_234
10
25.6061479
20
11.213456
40
0.2296779
50
145.2974905
51
160.2660252
0
ARC
8
DEFAULT_255_1_234
10
25.9134018
20
11.2332071
40
0.5234525
50
179.6514266
51
190.2855912
0
ARC
8
DEFAULT_255_1_234
10
25.7440155
20
11.2012786
40
0.3510893
50
190.0945431
51
207.5098196
0
ARC
8
DEFAULT_255_1_234
10
25.6874425
20
11.1743623
40
0.288489
50
207.9583163
51
216.3251085
0
ARC
8
DEFAULT_255_1_234
10
25.6534533
20
11.1464105
40
0.2445587
50
215.7661442
51
232.5456785
0
ARC
8
DEFAULT_255_1_234
10
25.6151516
20
11.0977482
40
0.1826382
50
232.8005391
51
270.6605633
0
ARC
8
DEFAULT_255_1_234
10
25.6197217
20
11.1341612
40
0.2190529
50
269.35537
51
288.4744281
0
ARC
8
DEFAULT_255_1_234
10
25.6290114
20
11.0992118
40
0.1829749
50
289.1833337
51
322.9683818
0
ARC
8
DEFAULT_255_1_234
10
25.5678636
20
11.1474391
40
0.2608399
50
322.6007884
51
346.5182367
0
ARC
8
DEFAULT_255_1_234
10
25.4521232
20
11.1769616
40
0.3802777
50
346.2582162
51
358.7741648
0
ARC
8
DEFAULT_255_1_234
10
25.3502901
20
11.1824965
40
0.4822176
50
358.3755224
51
0.0098023
0
ARC
8
DEFAULT_255_1_234
10
25.4259088
20
11.1852657
40
0.4066078
50
359.6214041
51
11.2839074
0
ARC
8
DEFAULT_255_1_234
10
25.5536235
20
11.2119066
40
0.2761514
50
11.0482309
51
31.8146458
0
ARC
8
DEFAULT_255_1_234
10
25.5845278
20
11.2286584
40
0.2410679
50
32.3035391
51
38.082671
0
ARC
8
DEFAULT_255_1_234
10
25.6265938
20
11.2667662
40
0.1844966
50
36.825067
51
85.7415724
0
ARC
8
DEFAULT_255_1_234
10
25.6198771
20
11.2167301
40
0.2349122
50
85.0140713
51
90.0513278
0
LINE
8
DEFAULT_255_1_234
10
5.9768137
20
4.6253433
11
5.9768137
21
3.4503
0
LINE
8
DEFAULT_255_1_234
10
5.9768137
20
3.4503
11
5.8274234
21
3.4503
0
LINE
8
DEFAULT_255_1_234
10
5.8274234
20
3.4503
11
5.8274234
21
4.4406133
0
LINE
8
DEFAULT_255_1_234
10
5.8274234
20
4.4406133
11
5.5278396
21
4.3305785
0
LINE
8
DEFAULT_255_1_234
10
5.5278396
20
4.3305785
11
5.5278396
21
4.4655117
0
LINE
8
DEFAULT_255_1_234
10
5.5278396
20
4.4655117
11
5.9535217
21
4.6253433
0
LINE
8
DEFAULT_255_1_234
10
5.9535217
20
4.6253433
11
5.9768137
21
4.6253433
0
LINE
8
DEFAULT_255_1_234
10
7.0394127
20
4.6197211
11
7.0394127
21
3.843052
0
LINE
8
DEFAULT_255_1_234
10
7.0394127
20
3.843052
11
7.2016538
21
3.843052
0
LINE
8
DEFAULT_255_1_234
10
7.2016538
20
3.843052
11
7.2016538
21
3.7217728
0
LINE
8
DEFAULT_255_1_234
10
7.2016538
20
3.7217728
11
7.0394127
21
3.7217728
0
LINE
8
DEFAULT_255_1_234
10
7.0394127
20
3.7217728
11
7.0394127
21
3.4503
0
LINE
8
DEFAULT_255_1_234
10
7.0394127
20
3.4503
11
6.8900224
21
3.4503
0
LINE
8
DEFAULT_255_1_234
10
6.8900224
20
3.4503
11
6.8900224
21
3.7217728
0
LINE
8
DEFAULT_255_1_234
10
6.8900224
20
3.7217728
11
6.3575181
21
3.7217728
0
LINE
8
DEFAULT_255_1_234
10
6.3575181
20
3.7217728
11
6.3575181
21
3.8093187
0
LINE
8
DEFAULT_255_1_234
10
6.3575181
20
3.8093187
11
6.8811875
21
4.6197211
0
LINE
8
DEFAULT_255_1_234
10
6.8811875
20
4.6197211
11
7.0394127
21
4.6197211
0
LINE
8
DEFAULT_255_1_234
10
6.8723525
20
4.3843912
11
6.5261846
21
3.843052
0
LINE
8
DEFAULT_255_1_234
10
6.5261846
20
3.843052
11
6.8900224
21
3.843052
0
LINE
8
DEFAULT_255_1_234
10
6.8900224
20
3.843052
11
6.8900224
21
4.4165181
0
LINE
8
DEFAULT_255_1_234
10
6.8900224
20
4.4165181
11
6.8723525
21
4.3843912
0
ENDSEC
0
EOF