0
SECTION
2
HEADER
9
$MEASUREMENT
70
1
0
ENDSEC
0
SECTION
2
TABLES
0
TABLE
2
LTYPE
0
LTYPE
72
65
70
64
2
CONTINUOUS
3
______
73
0
40
0
0
ENDTAB
0
TABLE
2
LAYER
0
LAYER
2
DEFAULT_255_2_778
70
0
62
255
6
CONTINUOUS
0
LAYER
2
DEFAULT_255_1_234
70
0
62
255
6
CONTINUOUS
0
ENDTAB
0
ENDSEC
0
SECTION
2
ENTITIES
0
LINE
8
DEFAULT_255_2_778
10
6.7457337
20
10.4510499
11
33.2040337
21
10.4510499
0
LINE
8
DEFAULT_255_2_778
10
33.2040337
20
10.4510499
11
33.2040337
21
2.5135499
0
LINE
8
DEFAULT_255_2_778
10
33.2040337
20
2.5135499
11
6.7457337
21
2.5135499
0
LINE
8
DEFAULT_255_2_778
10
6.7457337
20
2.5135499
11
6.7457337
21
10.4510499
0
LINE
8
DEFAULT_255_2_778
10
9.3930834
20
2.5135499
11
12.0388834
21
10.4510499
0
LINE
8
DEFAULT_255_2_778
10
12.0388834
20
10.4510499
11
12.0388834
21
8.3343499
0
LINE
8
DEFAULT_255_2_778
10
12.0388834
20
8.3343499
11
10.8482834
21
8.8635499
0
LINE
8
DEFAULT_255_2_778
10
10.8482834
20
8.8635499
11
12.0388834
21
10.4510499
0
LINE
8
DEFAULT_255_2_778
10
9.3931417
20
4.6301333
11
10.7160417
21
4.1009333
0
LINE
8
DEFAULT_255_2_778
10
10.7160417
20
4.1009333
11
9.3931417
21
2.5134333
0
LINE
8
DEFAULT_255_2_778
10
9.3931417
20
2.5134333
11
9.3931417
21
4.6301333
0
LINE
8
DEFAULT_255_2_778
10
14.6847834
20
2.5135499
11
17.3305834
21
10.4510499
0
LINE
8
DEFAULT_255_2_778
10
17.3305834
20
10.4510499
11
17.3305834
21
8.3343499
0
LINE
8
DEFAULT_255_2_778
10
17.3305834
20
8.3343499
11
16.1399834
21
8.8635499
0
LINE
8
DEFAULT_255_2_778
10
16.1399834
20
8.8635499
11
17.3305834
21
10.4510499
0
LINE
8
DEFAULT_255_2_778
10
14.6847417
20
4.6301333
11
16.0076417
21
4.1009333
0
LINE
8
DEFAULT_255_2_778
10
16.0076417
20
4.1009333
11
14.6847417
21
2.5134333
0
LINE
8
DEFAULT_255_2_778
10
14.6847417
20
2.5134333
11
14.6847417
21
4.6301333
0
LINE
8
DEFAULT_255_2_778
10
19.9764
20
10.4510499
11
19.9764
21
2.5135499
0
LINE
8
DEFAULT_255_2_778
10
22.6223417
20
2.5135499
11
22.6223417
21
10.4510499
0
LINE
8
DEFAULT_255_2_778
10
22.6223417
20
10.4510499
11
21.9608417
21
8.4666499
0
LINE
8
DEFAULT_255_2_778
10
21.9608417
20
8.4666499
11
23.2837417
21
8.4666499
0
LINE
8
DEFAULT_255_2_778
10
23.2837417
20
8.4666499
11
22.6223417
21
10.4510499
0
LINE
8
DEFAULT_255_2_778
10
21.9608417
20
4.4978875
11
23.2837417
21
4.4978875
0
LINE
8
DEFAULT_255_2_778
10
23.2837417
20
4.4978875
11
22.6223417
21
2.5134875
0
LINE
8
DEFAULT_255_2_778
10
22.6223417
20
2.5134875
11
21.9608417
21
4.4978875
0
LINE
8
DEFAULT_255_2_778
10
27.9139417
20
2.5135499
11
27.9139417
21
10.4510499
0
LINE
8
DEFAULT_255_2_778
10
27.9139417
20
10.4510499
11
27.2524417
21
8.4666499
0
LINE
8
DEFAULT_255_2_778
10
27.2524417
20
8.4666499
11
28.5753417
21
8.4666499
0
LINE
8
DEFAULT_255_2_778
10
28.5753417
20
8.4666499
11
27.9139417
21
10.4510499
0
LINE
8
DEFAULT_255_2_778
10
27.2524417
20
4.4978875
11
28.5753417
21
4.4978875
0
LINE
8
DEFAULT_255_2_778
10
28.5753417
20
4.4978875
11
27.9139417
21
2.5134875
0
LINE
8
DEFAULT_255_2_778
10
27.9139417
20
2.5134875
11
27.2524417
21
4.4978875
0
LINE
8
DEFAULT_255_2_778
10
25.2681
20
15.7426499
11
25.2681
21
7.8051499
0
LINE
8
DEFAULT_255_2_778
10
25.9295417
20
7.8052
11
24.6066417
21
7.8052
0
LINE
8
DEFAULT_255_2_778
10
30.5598
20
15.7426499
11
30.5598
21
7.8051499
0
LINE
8
DEFAULT_255_2_778
10
31.2212417
20
7.8052
11
29.8983417
21
7.8052
0
LINE
8
DEFAULT_255_2_778
10
22.6223
20
10.4509333
11
22.6223
21
15.7426333
0
LINE
8
DEFAULT_255_2_778
10
27.9139
20
10.4509333
11
27.9139
21
15.7426333
0
LINE
8
DEFAULT_255_2_778
10
27.9139
20
2.5135333
11
27.9139
21
-2.7781667
0
LINE
8
DEFAULT_255_2_778
10
22.6223
20
2.5135333
11
22.6223
21
-2.7781667
0
LINE
8
DEFAULT_255_2_778
10
9.3931417
20
6.4822749
11
9.3931417
21
10.4509749
0
LINE
8
DEFAULT_255_2_778
10
9.3931417
20
10.4509749
11
8.7316417
21
8.4665749
0
LINE
8
DEFAULT_255_2_778
10
8.7316417
20
8.4665749
11
10.0545417
21
8.4665749
0
LINE
8
DEFAULT_255_2_778
10
10.0545417
20
8.4665749
11
9.3931417
21
10.4509749
0
LINE
8
DEFAULT_255_2_778
10
14.6848417
20
6.4822749
11
14.6848417
21
10.4509749
0
LINE
8
DEFAULT_255_2_778
10
14.6848417
20
10.4509749
11
15.3462417
21
8.4665749
0
LINE
8
DEFAULT_255_2_778
10
15.3462417
20
8.4665749
11
14.0233417
21
8.4665749
0
LINE
8
DEFAULT_255_2_778
10
14.0233417
20
8.4665749
11
14.6848417
21
10.4509749
0
LINE
8
DEFAULT_255_2_778
10
14.6847667
20
6.4823
11
9.3930667
21
6.4823
0
LINE
8
DEFAULT_255_2_778
10
12.0389417
20
2.5135749
11
11.3774417
21
4.4978749
0
LINE
8
DEFAULT_255_2_778
10
11.3774417
20
4.4978749
11
12.7003417
21
4.4978749
0
LINE
8
DEFAULT_255_2_778
10
12.7003417
20
4.4978749
11
12.0389417
21
2.5135749
0
LINE
8
DEFAULT_255_2_778
10
12.0389417
20
2.5135749
11
12.0389417
21
6.4822749
0
LINE
8
DEFAULT_255_2_778
10
25.2681
20
-2.7781501
11
25.2681
21
5.1593499
0
LINE
8
DEFAULT_255_2_778
10
24.6066417
20
5.1593
11
25.9295417
21
5.1593
0
LINE
8
DEFAULT_255_2_778
10
4.1006834
20
5.6885
11
6.7464834
21
5.6885
0
LINE
8
DEFAULT_255_2_778
10
6.7464834
20
5.6885
11
6.7464834
21
2.5135
0
LINE
8
DEFAULT_255_2_778
10
6.7464834
20
2.5135
11
4.1006834
21
2.5135
0
LINE
8
DEFAULT_255_2_778
10
4.1006834
20
2.5135
11
4.1006834
21
5.6885
0
LINE
8
DEFAULT_255_2_778
10
4.7629417
20
2.5135
11
6.0858417
21
5.6885
0
LINE
8
DEFAULT_255_2_778
10
4.1006
20
10.451
11
4.1006
21
7.276
0
LINE
8
DEFAULT_255_2_778
10
4.1006834
20
9.6573
11
6.7464834
21
9.6573
0
LINE
8
DEFAULT_255_2_778
10
4.1006834
20
8.0698
11
6.7464834
21
8.0698
0
LINE
8
DEFAULT_255_2_778
10
33.2055834
20
3.7835
11
33.4995834
21
5.6885
0
LINE
8
DEFAULT_255_2_778
10
33.4995834
20
5.6885
11
33.9405834
21
2.5135
0
LINE
8
DEFAULT_255_2_778
10
33.9405834
20
2.5135
11
34.3813834
21
5.6885
0
LINE
8
DEFAULT_255_2_778
10
34.3813834
20
5.6885
11
34.8224834
21
2.5135
0
LINE
8
DEFAULT_255_2_778
10
34.8224834
20
2.5135
11
35.2634834
21
5.6885
0
LINE
8
DEFAULT_255_2_778
10
35.2634834
20
5.6885
11
35.7045834
21
2.5135
0
LINE
8
DEFAULT_255_2_778
10
35.7045834
20
2.5135
11
35.8513834
21
3.7835
0
LINE
8
DEFAULT_255_1_234
10
20.2431137
20
-0.6674567
11
20.2431137
21
-1.8425
0
LINE
8
DEFAULT_255_1_234
10
20.2431137
20
-1.8425
11
20.0937234
21
-1.8425
0
LINE
8
DEFAULT_255_1_234
10
20.0937234
20
-1.8425
11
20.0937234
21
-0.8521867
0
LINE
8
DEFAULT_255_1_234
10
20.0937234
20
-0.8521867
11
19.7941396
21
-0.9622215
0
LINE
8
DEFAULT_255_1_234
10
19.7941396
20
-0.9622215
11
19.7941396
21
-0.8272883
0
LINE
8
DEFAULT_255_1_234
10
19.7941396
20
-0.8272883
11
20.2198217
21
-0.6674567
0
LINE
8
DEFAULT_255_1_234
10
20.2198217
20
-0.6674567
11
20.2431137
21
-0.6674567
0
LINE
8
DEFAULT_255_1_234
10
20.8944877
20
-1.3067831
11
20.8944877
21
-1.1855038
0
LINE
8
DEFAULT_255_1_234
10
20.8944877
20
-1.1855038
11
21.0061289
21
-1.1855038
0
LINE
8
DEFAULT_255_1_234
10
20.8157767
20
-0.9798913
11
20.6671895
21
-0.9798913
0
LINE
8
DEFAULT_255_1_234
10
20.6567482
20
-1.5340812
11
20.8061386
21
-1.5340812
0
LINE
8
DEFAULT_255_1_234
10
21.0061289
20
-1.3067831
11
20.8944877
21
-1.3067831
0
ARC
8
DEFAULT_255_1_234
10
21.0032155
20
-0.8462287
40
0.3392876
50
270.4919872
51
281.8951556
0
ARC
8
DEFAULT_255_1_234
10
21.0273417
20
-0.9564298
40
0.2264817
50
281.6691735
51
301.2943132
0
ARC
8
DEFAULT_255_1_234
10
21.0443627
20
-0.9875696
40
0.1910381
50
301.7833094
51
311.7545298
0
ARC
8
DEFAULT_255_1_234
10
21.0535203
20
-0.9977252
40
0.1773635
50
311.7323931
51
354.2802411
0
ARC
8
DEFAULT_255_1_234
10
20.9808828
20
-0.9852278
40
0.2509385
50
353.0937916
51
0.1181479
0
ARC
8
DEFAULT_255_1_234
10
20.9347613
20
-0.9804614
40
0.2970898
50
359.1805295
51
15.0453146
0
ARC
8
DEFAULT_255_1_234
10
21.069345
20
-0.9412008
40
0.1569564
50
13.9577229
51
77.6713066
0
ARC
8
DEFAULT_255_1_234
10
21.0306979
20
-1.0797051
40
0.3006298
50
76.1116566
51
90.7026153
0
ARC
8
DEFAULT_255_1_234
10
21.0247817
20
-1.0523455
40
0.2732568
50
89.5324876
51
103.531937
0
ARC
8
DEFAULT_255_1_234
10
21.0047261
20
-0.9724116
40
0.1908508
50
103.2931773
51
133.5619022
0
ARC
8
DEFAULT_255_1_234
10
21.000275
20
-0.9664625
40
0.1834746
50
133.8349307
51
173.5344437
0
ARC
8
DEFAULT_255_1_234
10
21.0725793
20
-0.9792787
40
0.2568033
50
172.5096846
51
180.1366907
0
ARC
8
DEFAULT_255_1_234
10
20.9774687
20
-0.9758378
40
0.3103056
50
155.3484492
51
180.7484736
0
ARC
8
DEFAULT_255_1_234
10
20.9725776
20
-0.9787154
40
0.3070957
50
131.5744599
51
154.4798489
0
ARC
8
DEFAULT_255_1_234
10
21.0038923
20
-1.010369
40
0.3515643
50
96.9875458
51
131.9690667
0
ARC
8
DEFAULT_255_1_234
10
21.0258403
20
-1.1349364
40
0.4779224
50
89.8596053
51
97.7825159
0
ARC
8
DEFAULT_255_1_234
10
21.0306466
20
-1.1611384
40
0.5041361
50
78.3655447
51
90.4131539
0
ARC
8
DEFAULT_255_1_234
10
21.0664384
20
-0.9952113
40
0.3344039
50
56.6229102
51
78.638727
0
ARC
8
DEFAULT_255_1_234
10
21.0879328
20
-0.9576195
40
0.2912001
50
47.0253525
51
56.0854072
0
ARC
8
DEFAULT_255_1_234
10
21.0899108
20
-0.9536777
40
0.2869704
50
10.9208013
51
46.7778124
0
ARC
8
DEFAULT_255_1_234
10
20.9535174
20
-0.9852143
40
0.426899
50
359.6364486
51
11.6087304
0
ARC
8
DEFAULT_255_1_234
10
21.1370018
20
-0.9867248
40
0.243409
50
332.3549906
51
359.7179418
0
ARC
8
DEFAULT_255_1_234
10
21.071962
20
-0.9558858
40
0.3153459
50
325.2333722
51
332.8745602
0
ARC
8
DEFAULT_255_1_234
10
21.0872244
20
-0.9665172
40
0.2967456
50
292.9802137
51
325.2392345
0
ARC
8
DEFAULT_255_1_234
10
21.0597617
20
-0.9131137
40
0.3566604
50
292.5402179
51
293.6924929
0
ARC
8
DEFAULT_255_1_234
10
21.0990213
20
-1.5585909
40
0.3307468
50
57.6435486
51
72.8625112
0
ARC
8
DEFAULT_255_1_234
10
21.1344713
20
-1.5011451
40
0.2632492
50
36.7248896
51
57.4697979
0
ARC
8
DEFAULT_255_1_234
10
21.1333346
20
-1.499878
40
0.2634081
50
8.0545065
51
36.356114
0
ARC
8
DEFAULT_255_1_234
10
21.0470531
20
-1.5153826
40
0.3510261
50
359.8320645
51
8.5869982
0
ARC
8
DEFAULT_255_1_234
10
21.0095307
20
-1.5201899
40
0.3885653
50
343.9829931
51
0.5571613
0
ARC
8
DEFAULT_255_1_234
10
21.0981504
20
-1.5444562
40
0.2966924
50
311.6359546
51
343.7651759
0
ARC
8
DEFAULT_255_1_234
10
21.0603074
20
-1.5017898
40
0.3537231
50
279.7829875
51
311.6255694
0
ARC
8
DEFAULT_255_1_234
10
21.030185
20
-1.358072
40
0.5004971
50
269.7286406
51
280.3856417
0
ARC
8
DEFAULT_255_1_234
10
21.0239922
20
-1.3622004
40
0.4963778
50
256.6828919
51
270.4412052
0
ARC
8
DEFAULT_255_1_234
10
20.9901218
20
-1.5006606
40
0.3538406
50
229.4223008
51
256.8556159
0
ARC
8
DEFAULT_255_1_234
10
20.9486611
20
-1.5473264
40
0.2914296
50
181.818294
51
229.6455059
0
ARC
8
DEFAULT_255_1_234
10
21.0526567
20
-1.5342504
40
0.3959084
50
179.9755256
51
183.2323064
0
ARC
8
DEFAULT_255_1_234
10
21.0354313
20
-1.5362963
40
0.2293034
50
179.4465117
51
196.2869258
0
ARC
8
DEFAULT_255_1_234
10
20.9866721
20
-1.5496349
40
0.1787621
50
196.5661473
51
227.705904
0
ARC
8
DEFAULT_255_1_234
10
21.0030816
20
-1.5312845
40
0.2033784
50
227.7652068
51
257.8762805
0
ARC
8
DEFAULT_255_1_234
10
21.0255786
20
-1.4369844
40
0.3003081
50
257.4584385
51
270.426602
0
ARC
8
DEFAULT_255_1_234
10
21.0301352
20
-1.4080004
40
0.329292
50
269.5962073
51
280.8789248
0
ARC
8
DEFAULT_255_1_234
10
21.0530881
20
-1.5226315
40
0.2123908
50
280.6346389
51
299.8595945
0
ARC
8
DEFAULT_255_1_234
10
21.0721788
20
-1.5588788
40
0.171457
50
300.3576302
51
314.5517981
0
ARC
8
DEFAULT_255_1_234
10
21.0638848
20
-1.5528081
40
0.1816095
50
315.0728369
51
345.0431014
0
ARC
8
DEFAULT_255_1_234
10
20.9715662
20
-1.5259159
40
0.2777492
50
344.5986631
51
357.9269593
0
ARC
8
DEFAULT_255_1_234
10
20.8819989
20
-1.5197724
40
0.3674917
50
357.4748886
51
0.0231117
0
ARC
8
DEFAULT_255_1_234
10
20.9843098
20
-1.5173321
40
0.2651907
50
359.5047933
51
13.4239635
0
ARC
8
DEFAULT_255_1_234
10
21.0709741
20
-1.4951522
40
0.1757509
50
12.9498199
51
48.7551375
0
ARC
8
DEFAULT_255_1_234
10
21.0527475
20
-1.52006
40
0.2065134
50
49.5088623
51
72.1836453
0
ARC
8
DEFAULT_255_1_234
10
21.0169628
20
-1.6262709
40
0.3185836
50
71.9010081
51
84.3554254
0
ARC
8
DEFAULT_255_1_234
10
21.000826
20
-1.7623674
40
0.4556151
50
84.0193428
51
89.333121
0
LINE
8
DEFAULT_255_1_234
10
21.7892233
20
-1.2867037
11
21.6703536
21
-1.2561831
0
LINE
8
DEFAULT_255_1_234
10
21.6703536
20
-1.2561831
11
21.7297885
21
-0.6730789
0
LINE
8
DEFAULT_255_1_234
10
21.7297885
20
-0.6730789
11
22.3289562
21
-0.6730789
0
LINE
8
DEFAULT_255_1_234
10
22.3289562
20
-0.6730789
11
22.3289562
21
-0.8104216
0
LINE
8
DEFAULT_255_1_234
10
22.3289562
20
-0.8104216
11
21.8558868
21
-0.8104216
0
LINE
8
DEFAULT_255_1_234
10
21.8558868
20
-0.8104216
11
21.8205471
21
-1.1292816
0
LINE
8
DEFAULT_255_1_234
10
21.6285886
20
-1.5348844
11
21.769144
21
-1.5348844
0
LINE
8
DEFAULT_255_1_234
10
21.8285789
20
-1.2545768
11
21.7892233
21
-1.2867037
0
ARC
8
DEFAULT_255_1_234
10
22.0060255
20
-1.447277
40
0.3681349
50
93.7182161
51
120.2538958
0
ARC
8
DEFAULT_255_1_234
10
22.0154518
20
-1.5280606
40
0.449379
50
89.9660152
51
94.2496022
0
ARC
8
DEFAULT_255_1_234
10
22.0195252
20
-1.4691451
40
0.390482
50
73.8043271
51
90.5585896
0
ARC
8
DEFAULT_255_1_234
10
22.0430149
20
-1.3833398
40
0.3015334
50
41.3071453
51
73.5430202
0
ARC
8
DEFAULT_255_1_234
10
22.0013976
20
-1.4191676
40
0.3564457
50
13.5075983
51
41.2174222
0
ARC
8
DEFAULT_255_1_234
10
21.837218
20
-1.4621514
40
0.5261351
50
1.1331335
51
13.8829381
0
ARC
8
DEFAULT_255_1_234
10
21.6960549
20
-1.4697335
40
0.6674378
50
359.9919444
51
1.544251
0
ARC
8
DEFAULT_255_1_234
10
21.8237375
20
-1.473872
40
0.5397702
50
347.8572367
51
0.4293338
0
ARC
8
DEFAULT_255_1_234
10
21.9987693
20
-1.5135264
40
0.3603188
50
323.673004
51
348.1672506
0
ARC
8
DEFAULT_255_1_234
10
22.0282201
20
-1.5314832
40
0.3259678
50
316.8171152
51
323.1492751
0
ARC
8
DEFAULT_255_1_234
10
22.034339
20
-1.535154
40
0.3189975
50
281.8396411
51
316.5457803
0
ARC
8
DEFAULT_255_1_234
10
21.9967654
20
-1.3796238
40
0.4789527
50
269.5770101
51
282.4214771
0
ARC
8
DEFAULT_255_1_234
10
21.9896465
20
-1.4009875
40
0.45759
50
256.2427136
51
270.4486331
0
ARC
8
DEFAULT_255_1_234
10
21.9597368
20
-1.5209771
40
0.3339303
50
228.9023911
51
256.3314342
0
ARC
8
DEFAULT_255_1_234
10
21.95236
20
-1.5326254
40
0.32031
50
193.753695
51
228.5271154
0
ARC
8
DEFAULT_255_1_234
10
22.0761554
20
-1.49632
40
0.4492253
50
184.924711
51
194.497588
0
ARC
8
DEFAULT_255_1_234
10
22.0954121
20
-1.4927409
40
0.3289787
50
187.3600538
51
198.6732863
0
ARC
8
DEFAULT_255_1_234
10
21.9904415
20
-1.5291326
40
0.217884
50
198.4451669
51
217.794479
0
ARC
8
DEFAULT_255_1_234
10
21.960859
20
-1.5500915
40
0.1816698
50
218.2887171
51
228.5612368
0
ARC
8
DEFAULT_255_1_234
10
21.9706377
20
-1.5369037
40
0.1980329
50
228.9654866
51
258.1234728
0
ARC
8
DEFAULT_255_1_234
10
21.9912087
20
-1.4488167
40
0.2884748
50
257.7258293
51
270.401361
0
ARC
8
DEFAULT_255_1_234
10
21.9956974
20
-1.4933179
40
0.2439788
50
269.4204404
51
286.4209037
0
ARC
8
DEFAULT_255_1_234
10
22.0105461
20
-1.5472343
40
0.1880666
50
286.7251356
51
320.600362
0
ARC
8
DEFAULT_255_1_234
10
21.9722286
20
-1.5161405
40
0.2374121
50
320.6712579
51
344.5441685
0
ARC
8
DEFAULT_255_1_234
10
21.8565612
20
-1.4821955
40
0.3579479
50
344.2412205
51
356.7357071
0
ARC
8
DEFAULT_255_1_234
10
21.7316761
20
-1.4718556
40
0.4832297
50
356.3548756
51
0.0500261
0
ARC
8
DEFAULT_255_1_234
10
21.865327
20
-1.468735
40
0.3495889
50
359.5576869
51
12.953486
0
ARC
8
DEFAULT_255_1_234
10
21.9708167
20
-1.4431566
40
0.2410532
50
12.6490276
51
41.6081334
0
ARC
8
DEFAULT_255_1_234
10
21.9938538
20
-1.4235679
40
0.2108218
50
41.7850273
51
85.9892764
0
ARC
8
DEFAULT_255_1_234
10
21.9815275
20
-1.5048538
40
0.2928454
50
84.6957577
51
90.0676183
0
ARC
8
DEFAULT_255_1_234
10
21.9791759
20
-1.5717284
40
0.3597255
50
89.6804936
51
99.1614436
0
ARC
8
DEFAULT_255_1_234
10
21.958639
20
-1.4489869
40
0.235281
50
98.9830931
51
113.8908934
0
ARC
8
DEFAULT_255_1_234
10
21.93568
20
-1.3948413
40
0.176479
50
114.1950727
51
127.3641004
0
LINE
8
DEFAULT_255_1_234
10
20.7921119
20
13.5753792
11
20.7921119
21
13.4541
0
LINE
8
DEFAULT_255_1_234
10
20.7921119
20
13.4541
11
20.025884
21
13.4541
0
LINE
8
DEFAULT_255_1_234
10
20.025884
20
13.4541
11
20.025884
21
13.5609221
0
LINE
8
DEFAULT_255_1_234
10
20.025884
20
13.5609221
11
20.4306836
21
14.0106995
0
LINE
8
DEFAULT_255_1_234
10
20.1519823
20
14.2789595
11
20.0033952
21
14.2789595
0
LINE
8
DEFAULT_255_1_234
10
20.5182296
20
13.9151218
11
20.2049918
21
13.5753792
0
LINE
8
DEFAULT_255_1_234
10
20.2049918
20
13.5753792
11
20.7921119
21
13.5753792
0
ARC
8
DEFAULT_255_1_234
10
19.081667
20
15.2036527
40
1.8008286
50
318.5132453
51
320.7828378
0
ARC
8
DEFAULT_255_1_234
10
19.6103644
20
14.7733426
40
1.1191493
50
320.7372736
51
323.9737074
0
ARC
8
DEFAULT_255_1_234
10
20.0023501
20
14.4893361
40
0.6350923
50
323.8961724
51
328.6421089
0
ARC
8
DEFAULT_255_1_234
10
20.2070096
20
14.3631031
40
0.3946393
50
328.8299013
51
331.789948
0
ARC
8
DEFAULT_255_1_234
10
20.3067274
20
14.3116509
40
0.2824501
50
331.4255242
51
352.9364833
0
ARC
8
DEFAULT_255_1_234
10
20.3203775
20
14.3085976
40
0.2685315
50
353.2248685
51
0.0169286
0
ARC
8
DEFAULT_255_1_234
10
20.3413652
20
14.310895
40
0.2475536
50
359.4866256
51
15.9339782
0
ARC
8
DEFAULT_255_1_234
10
20.3920637
20
14.3245286
40
0.1950618
50
16.1714718
51
43.5284424
0
ARC
8
DEFAULT_255_1_234
10
20.3997946
20
14.3322573
40
0.184134
50
43.4415429
51
83.1661404
0
ARC
8
DEFAULT_255_1_234
10
20.3863864
20
14.2585771
40
0.258926
50
82.160215
51
90.1505798
0
ARC
8
DEFAULT_255_1_234
10
20.3832291
20
14.2048865
40
0.3126255
50
89.5460705
51
102.5418777
0
ARC
8
DEFAULT_255_1_234
10
20.3589377
20
14.3079665
40
0.2067346
50
102.1739365
51
129.2061916
0
ARC
8
DEFAULT_255_1_234
10
20.3510449
20
14.3204094
40
0.1921118
50
129.7279328
51
135.7542026
0
ARC
8
DEFAULT_255_1_234
10
20.3631977
20
14.3107045
40
0.2075944
50
136.175737
51
166.3674722
0
ARC
8
DEFAULT_255_1_234
10
20.4638896
20
14.2837182
40
0.3118201
50
165.9092917
51
178.8683903
0
ARC
8
DEFAULT_255_1_234
10
20.5503757
20
14.2790179
40
0.3983935
50
178.438168
51
180.0083905
0
ARC
8
DEFAULT_255_1_234
10
20.4102359
20
14.2829231
40
0.4068601
50
163.2878735
51
180.5581814
0
ARC
8
DEFAULT_255_1_234
10
20.3300621
20
14.304984
40
0.3237344
50
133.454115
51
162.9470031
0
ARC
8
DEFAULT_255_1_234
10
20.3479162
20
14.286
40
0.349795
50
100.7869394
51
133.4384016
0
ARC
8
DEFAULT_255_1_234
10
20.3826934
20
14.1311319
40
0.5084616
50
89.6605301
51
101.3704185
0
ARC
8
DEFAULT_255_1_234
10
20.3893273
20
14.1372496
40
0.502348
50
78.2171172
51
90.4130393
0
ARC
8
DEFAULT_255_1_234
10
20.4248351
20
14.2996637
40
0.3361092
50
55.9268222
51
78.4888551
0
ARC
8
DEFAULT_255_1_234
10
20.4444791
20
14.3335324
40
0.2970617
50
47.9292255
51
55.4054003
0
ARC
8
DEFAULT_255_1_234
10
20.4546352
20
14.3438502
40
0.2825983
50
4.3347696
51
48.0560701
0
ARC
8
DEFAULT_255_1_234
10
20.3450745
20
14.3268601
40
0.393225
50
359.925209
51
5.5967654
0
ARC
8
DEFAULT_255_1_234
10
20.3879637
20
14.3324816
40
0.3503892
50
337.8914096
51
358.9967724
0
ARC
8
DEFAULT_255_1_234
10
20.1166049
20
14.4371706
40
0.6412172
50
326.9135351
51
338.3505194
0
ARC
8
DEFAULT_255_1_234
10
19.7180353
20
14.6926284
40
1.1146189
50
319.6472867
51
327.095818
0
ARC
8
DEFAULT_255_1_234
10
19.3347356
20
15.0088
40
1.6114559
50
317.2586784
51
319.9046139
0
LINE
8
DEFAULT_255_1_234
10
21.5768127
20
14.6235211
11
21.5768127
21
13.846852
0
LINE
8
DEFAULT_255_1_234
10
21.5768127
20
13.846852
11
21.7390538
21
13.846852
0
LINE
8
DEFAULT_255_1_234
10
21.7390538
20
13.846852
11
21.7390538
21
13.7255728
0
LINE
8
DEFAULT_255_1_234
10
21.7390538
20
13.7255728
11
21.5768127
21
13.7255728
0
LINE
8
DEFAULT_255_1_234
10
21.5768127
20
13.7255728
11
21.5768127
21
13.4541
0
LINE
8
DEFAULT_255_1_234
10
21.5768127
20
13.4541
11
21.4274224
21
13.4541
0
LINE
8
DEFAULT_255_1_234
10
21.4274224
20
13.4541
11
21.4274224
21
13.7255728
0
LINE
8
DEFAULT_255_1_234
10
21.4274224
20
13.7255728
11
20.8949181
21
13.7255728
0
LINE
8
DEFAULT_255_1_234
10
20.8949181
20
13.7255728
11
20.8949181
21
13.8131187
0
LINE
8
DEFAULT_255_1_234
10
20.8949181
20
13.8131187
11
21.4185875
21
14.6235211
0
LINE
8
DEFAULT_255_1_234
10
21.4185875
20
14.6235211
11
21.5768127
21
14.6235211
0
LINE
8
DEFAULT_255_1_234
10
21.4097525
20
14.3881912
11
21.0635846
21
13.846852
0
LINE
8
DEFAULT_255_1_234
10
21.0635846
20
13.846852
11
21.4274224
21
13.846852
0
LINE
8
DEFAULT_255_1_234
10
21.4274224
20
13.846852
11
21.4274224
21
14.4203181
0
LINE
8
DEFAULT_255_1_234
10
21.4274224
20
14.4203181
11
21.4097525
21
14.3881912
0
LINE
8
DEFAULT_255_1_234
10
22.4297833
20
14.6243243
11
22.456288
21
14.6243243
0
LINE
8
DEFAULT_255_1_234
10
22.456288
20
14.6243243
11
22.456288
21
14.498226
0
LINE
8
DEFAULT_255_1_234
10
22.456288
20
14.498226
11
22.4289801
21
14.498226
0
LINE
8
DEFAULT_255_1_234
10
21.8820187
20
13.8990583
11
21.8820187
21
13.9560836
0
LINE
8
DEFAULT_255_1_234
10
22.0314091
20
13.9368075
11
22.0314091
21
13.8821917
0
ARC
8
DEFAULT_255_1_234
10
22.4342149
20
13.9984455
40
0.4998079
50
90.6001036
51
104.514704
0
ARC
8
DEFAULT_255_1_234
10
22.3953665
20
14.1429131
40
0.3502176
50
104.2855254
51
133.862935
0
ARC
8
DEFAULT_255_1_234
10
22.4117422
20
14.132083
40
0.3693984
50
134.5302688
51
161.6210873
0
ARC
8
DEFAULT_255_1_234
10
22.5770611
20
14.0737895
40
0.5446739
50
161.2849839
51
174.2076652
0
ARC
8
DEFAULT_255_1_234
10
22.7177548
20
14.0543787
40
0.6866274
50
173.7810589
51
174.9254635
0
ARC
8
DEFAULT_255_1_234
10
22.262738
20
13.9160839
40
0.3033419
50
95.8330959
51
138.9954921
0
ARC
8
DEFAULT_255_1_234
10
22.2850736
20
13.7882375
40
0.4328947
50
89.8753725
51
97.0544009
0
ARC
8
DEFAULT_255_1_234
10
22.2898202
20
13.8717748
40
0.3493769
50
71.6407809
51
90.6240094
0
ARC
8
DEFAULT_255_1_234
10
22.3048775
20
13.9272082
40
0.2920396
50
39.6367836
51
71.019018
0
ARC
8
DEFAULT_255_1_234
10
22.2412248
20
13.8721998
40
0.3761538
50
10.658731
51
39.9043955
0
ARC
8
DEFAULT_255_1_234
10
22.0864331
20
13.8385686
40
0.5345136
50
359.682601
51
11.132623
0
ARC
8
DEFAULT_255_1_234
10
22.0824462
20
13.831501
40
0.5385081
50
347.2486944
51
0.4369317
0
ARC
8
DEFAULT_255_1_234
10
22.2491939
20
13.7913807
40
0.3670249
50
318.1409698
51
347.6118597
0
ARC
8
DEFAULT_255_1_234
10
22.2816932
20
13.7646702
40
0.3250007
50
275.6342139
51
317.8248465
0
ARC
8
DEFAULT_255_1_234
10
22.2596043
20
13.8946219
40
0.4565864
50
269.8874292
51
276.7917694
0
ARC
8
DEFAULT_255_1_234
10
22.2541114
20
13.7920743
40
0.3540676
50
246.9140195
51
270.7437342
0
ARC
8
DEFAULT_255_1_234
10
22.2547504
20
13.7778384
40
0.3412781
50
218.1665114
51
245.878116
0
ARC
8
DEFAULT_255_1_234
10
22.3426965
20
13.8514279
40
0.455911
50
191.4115814
51
218.6077802
0
ARC
8
DEFAULT_255_1_234
10
22.5365054
20
13.8948833
40
0.6545001
50
179.6345085
51
191.7836486
0
ARC
8
DEFAULT_255_1_234
10
23.0947391
20
13.9627697
40
1.2127388
50
171.4525249
51
180.3158839
0
ARC
8
DEFAULT_255_1_234
10
22.6552267
20
14.0311608
40
0.7679464
50
157.9802646
51
171.6246686
0
ARC
8
DEFAULT_255_1_234
10
22.4338288
20
14.1194421
40
0.5296008
50
141.4298019
51
157.854097
0
ARC
8
DEFAULT_255_1_234
10
22.3696608
20
14.1648381
40
0.4511509
50
102.8715806
51
140.8564722
0
ARC
8
DEFAULT_255_1_234
10
22.4344224
20
13.9208552
40
0.7034845
50
90.3778349
51
103.5869322
0
ARC
8
DEFAULT_255_1_234
10
22.2606
20
13.860373
40
0.2370698
50
89.8751008
51
126.2071704
0
ARC
8
DEFAULT_255_1_234
10
22.265179
20
13.8449303
40
0.2522934
50
124.9745049
51
144.895901
0
ARC
8
DEFAULT_255_1_234
10
22.247598
20
13.859256
40
0.2296779
50
145.2974905
51
160.2660252
0
ARC
8
DEFAULT_255_1_234
10
22.5548519
20
13.8790071
40
0.5234525
50
179.6514266
51
190.2855912
0
ARC
8
DEFAULT_255_1_234
10
22.3854656
20
13.8470786
40
0.3510893
50
190.0945431
51
207.5098196
0
ARC
8
DEFAULT_255_1_234
10
22.3288926
20
13.8201623
40
0.288489
50
207.9583163
51
216.3251085
0
ARC
8
DEFAULT_255_1_234
10
22.2949034
20
13.7922105
40
0.2445587
50
215.7661442
51
232.5456785
0
ARC
8
DEFAULT_255_1_234
10
22.2566017
20
13.7435482
40
0.1826382
50
232.8005391
51
270.6605633
0
ARC
8
DEFAULT_255_1_234
10
22.2611718
20
13.7799612
40
0.2190529
50
269.35537
51
288.4744281
0
ARC
8
DEFAULT_255_1_234
10
22.2704615
20
13.7450118
40
0.1829749
50
289.1833337
51
322.9683818
0
ARC
8
DEFAULT_255_1_234
10
22.2093137
20
13.7932391
40
0.2608399
50
322.6007884
51
346.5182367
0
ARC
8
DEFAULT_255_1_234
10
22.0935733
20
13.8227616
40
0.3802777
50
346.2582162
51
358.7741648
0
ARC
8
DEFAULT_255_1_234
10
21.9917402
20
13.8282965
40
0.4822176
50
358.3755224
51
0.0098023
0
ARC
8
DEFAULT_255_1_234
10
22.0673589
20
13.8310657
40
0.4066078
50
359.6214041
51
11.2839074
0
ARC
8
DEFAULT_255_1_234
10
22.1950736
20
13.8577066
40
0.2761514
50
11.0482309
51
31.8146458
0
ARC
8
DEFAULT_255_1_234
10
22.2259779
20
13.8744584
40
0.2410679
50
32.3035391
51
38.082671
0
ARC
8
DEFAULT_255_1_234
10
22.2680439
20
13.9125662
40
0.1844966
50
36.825067
51
85.7415724
0
ARC
8
DEFAULT_255_1_234
10
22.2613272
20
13.8625301
40
0.2349122
50
85.0140713
51
90.0513278
0
LINE
8
DEFAULT_255_1_234
10
23.5518171
20
14.6235211
11
23.5518171
21
14.539991
0
LINE
8
DEFAULT_255_1_234
10
23.5518171
20
14.539991
11
23.0675033
21
13.4541
0
LINE
8
DEFAULT_255_1_234
10
23.0675033
20
13.4541
11
22.9116876
21
13.4541
0
LINE
8
DEFAULT_255_1_234
10
22.9116876
20
13.4541
11
23.3943951
21
14.5014387
0
LINE
8
DEFAULT_255_1_234
10
23.3943951
20
14.5014387
11
22.7614941
21
14.5014387
0
LINE
8
DEFAULT_255_1_234
10
22.7614941
20
14.5014387
11
22.7614941
21
14.6235211
0
LINE
8
DEFAULT_255_1_234
10
22.7614941
20
14.6235211
11
23.5518171
21
14.6235211
0
ENDSEC
0
EOF