0
SECTION
2
HEADER
9
$MEASUREMENT
70
1
0
ENDSEC
0
SECTION
2
TABLES
0
TABLE
2
LTYPE
0
LTYPE
72
65
70
64
2
CONTINUOUS
3
______
73
0
40
0
0
ENDTAB
0
TABLE
2
LAYER
0
LAYER
2
DEFAULT_255_2_778
70
0
62
255
6
CONTINUOUS
0
LAYER
2
DEFAULT_255_1_234
70
0
62
255
6
CONTINUOUS
0
ENDTAB
0
ENDSEC
0
SECTION
2
ENTITIES
0
LINE
8
DEFAULT_255_2_778
10
9.3927335
20
10.4510499
11
19.9760335
21
10.4510499
0
LINE
8
DEFAULT_255_2_778
10
19.9760335
20
10.4510499
11
19.9760335
21
2.5135499
0
LINE
8
DEFAULT_255_2_778
10
19.9760335
20
2.5135499
11
9.3927335
21
2.5135499
0
LINE
8
DEFAULT_255_2_778
10
9.3927335
20
2.5135499
11
9.3927335
21
10.4510499
0
LINE
8
DEFAULT_255_2_778
10
14.6844
20
10.4510499
11
14.6844
21
2.5135499
0
LINE
8
DEFAULT_255_2_778
10
12.0385417
20
2.5135499
11
12.0385417
21
10.4510499
0
LINE
8
DEFAULT_255_2_778
10
12.0385417
20
10.4510499
11
11.3770417
21
8.4666499
0
LINE
8
DEFAULT_255_2_778
10
11.3770417
20
8.4666499
11
12.6999417
21
8.4666499
0
LINE
8
DEFAULT_255_2_778
10
12.6999417
20
8.4666499
11
12.0385417
21
10.4510499
0
LINE
8
DEFAULT_255_2_778
10
19.9760834
20
3.7835
11
20.2700834
21
5.6885
0
LINE
8
DEFAULT_255_2_778
10
20.2700834
20
5.6885
11
20.7110834
21
2.5135
0
LINE
8
DEFAULT_255_2_778
10
20.7110834
20
2.5135
11
21.1521834
21
5.6885
0
LINE
8
DEFAULT_255_2_778
10
21.1521834
20
5.6885
11
21.5931834
21
2.5135
0
LINE
8
DEFAULT_255_2_778
10
21.5931834
20
2.5135
11
22.0342834
21
5.6885
0
LINE
8
DEFAULT_255_2_778
10
22.0342834
20
5.6885
11
22.4753834
21
2.5135
0
LINE
8
DEFAULT_255_2_778
10
22.4753834
20
2.5135
11
22.6218834
21
3.7835
0
LINE
8
DEFAULT_255_2_778
10
16.6687417
20
7.8052
11
17.9916417
21
7.8052
0
LINE
8
DEFAULT_255_2_778
10
16.6687417
20
5.1593
11
17.9916417
21
5.1593
0
LINE
8
DEFAULT_255_2_778
10
17.3302
20
7.8051499
11
17.3302
21
15.7426499
0
LINE
8
DEFAULT_255_2_778
10
17.3302
20
5.1593499
11
17.3302
21
-2.7781501
0
LINE
8
DEFAULT_255_2_778
10
4.1010834
20
5.6885
11
6.7468834
21
5.6885
0
LINE
8
DEFAULT_255_2_778
10
6.7468834
20
5.6885
11
6.7468834
21
2.5135
0
LINE
8
DEFAULT_255_2_778
10
6.7468834
20
2.5135
11
4.1010834
21
2.5135
0
LINE
8
DEFAULT_255_2_778
10
4.1010834
20
2.5135
11
4.1010834
21
5.6885
0
LINE
8
DEFAULT_255_2_778
10
4.7625417
20
2.5135
11
6.0854417
21
5.6885
0
LINE
8
DEFAULT_255_2_778
10
6.7468834
20
9.1280916
11
9.3926834
21
9.1280916
0
LINE
8
DEFAULT_255_2_778
10
9.3926834
20
9.1280916
11
9.3926834
21
2.5134916
0
LINE
8
DEFAULT_255_2_778
10
9.3926834
20
2.5134916
11
6.7468834
21
2.5134916
0
LINE
8
DEFAULT_255_2_778
10
6.7468834
20
2.5134916
11
6.7468834
21
9.1280916
0
LINE
8
DEFAULT_255_2_778
10
6.74685
20
9.1280916
11
8.33435
21
5.6884916
0
LINE
8
DEFAULT_255_2_778
10
8.33435
20
5.6884916
11
6.74685
21
2.5134916
0
LINE
8
DEFAULT_255_2_778
10
4.101
20
9.9218
11
4.101
21
6.7468
0
LINE
8
DEFAULT_255_2_778
10
4.1010834
20
9.1281
11
6.7468834
21
9.1281
0
LINE
8
DEFAULT_255_2_778
10
4.1010834
20
7.5406
11
6.7468834
21
7.5406
0
LINE
8
DEFAULT_255_1_234
10
14.8174137
20
-0.6674567
11
14.8174137
21
-1.8425
0
LINE
8
DEFAULT_255_1_234
10
14.8174137
20
-1.8425
11
14.6680234
21
-1.8425
0
LINE
8
DEFAULT_255_1_234
10
14.6680234
20
-1.8425
11
14.6680234
21
-0.8521867
0
LINE
8
DEFAULT_255_1_234
10
14.6680234
20
-0.8521867
11
14.3684396
21
-0.9622215
0
LINE
8
DEFAULT_255_1_234
10
14.3684396
20
-0.9622215
11
14.3684396
21
-0.8272883
0
LINE
8
DEFAULT_255_1_234
10
14.3684396
20
-0.8272883
11
14.7941217
21
-0.6674567
0
LINE
8
DEFAULT_255_1_234
10
14.7941217
20
-0.6674567
11
14.8174137
21
-0.6674567
0
LINE
8
DEFAULT_255_1_234
10
15.0871119
20
13.5753792
11
15.0871119
21
13.4541
0
LINE
8
DEFAULT_255_1_234
10
15.0871119
20
13.4541
11
14.320884
21
13.4541
0
LINE
8
DEFAULT_255_1_234
10
14.320884
20
13.4541
11
14.320884
21
13.5609221
0
LINE
8
DEFAULT_255_1_234
10
14.320884
20
13.5609221
11
14.7256836
21
14.0106995
0
LINE
8
DEFAULT_255_1_234
10
14.4469823
20
14.2789595
11
14.2983952
21
14.2789595
0
LINE
8
DEFAULT_255_1_234
10
14.8132296
20
13.9151218
11
14.4999918
21
13.5753792
0
LINE
8
DEFAULT_255_1_234
10
14.4999918
20
13.5753792
11
15.0871119
21
13.5753792
0
ARC
8
DEFAULT_255_1_234
10
13.376667
20
15.2036527
40
1.8008286
50
318.5132453
51
320.7828378
0
ARC
8
DEFAULT_255_1_234
10
13.9053644
20
14.7733426
40
1.1191493
50
320.7372736
51
323.9737074
0
ARC
8
DEFAULT_255_1_234
10
14.2973501
20
14.4893361
40
0.6350923
50
323.8961724
51
328.6421089
0
ARC
8
DEFAULT_255_1_234
10
14.5020096
20
14.3631031
40
0.3946393
50
328.8299013
51
331.789948
0
ARC
8
DEFAULT_255_1_234
10
14.6017274
20
14.3116509
40
0.2824501
50
331.4255242
51
352.9364833
0
ARC
8
DEFAULT_255_1_234
10
14.6153775
20
14.3085976
40
0.2685315
50
353.2248685
51
0.0169286
0
ARC
8
DEFAULT_255_1_234
10
14.6363652
20
14.310895
40
0.2475536
50
359.4866256
51
15.9339782
0
ARC
8
DEFAULT_255_1_234
10
14.6870637
20
14.3245286
40
0.1950618
50
16.1714718
51
43.5284424
0
ARC
8
DEFAULT_255_1_234
10
14.6947946
20
14.3322573
40
0.184134
50
43.4415429
51
83.1661404
0
ARC
8
DEFAULT_255_1_234
10
14.6813864
20
14.2585771
40
0.258926
50
82.160215
51
90.1505798
0
ARC
8
DEFAULT_255_1_234
10
14.6782291
20
14.2048865
40
0.3126255
50
89.5460705
51
102.5418777
0
ARC
8
DEFAULT_255_1_234
10
14.6539377
20
14.3079665
40
0.2067346
50
102.1739365
51
129.2061916
0
ARC
8
DEFAULT_255_1_234
10
14.6460449
20
14.3204094
40
0.1921118
50
129.7279328
51
135.7542026
0
ARC
8
DEFAULT_255_1_234
10
14.6581977
20
14.3107045
40
0.2075944
50
136.175737
51
166.3674722
0
ARC
8
DEFAULT_255_1_234
10
14.7588896
20
14.2837182
40
0.3118201
50
165.9092917
51
178.8683903
0
ARC
8
DEFAULT_255_1_234
10
14.8453757
20
14.2790179
40
0.3983935
50
178.438168
51
180.0083905
0
ARC
8
DEFAULT_255_1_234
10
14.7052359
20
14.2829231
40
0.4068601
50
163.2878735
51
180.5581814
0
ARC
8
DEFAULT_255_1_234
10
14.6250621
20
14.304984
40
0.3237344
50
133.454115
51
162.9470031
0
ARC
8
DEFAULT_255_1_234
10
14.6429162
20
14.286
40
0.349795
50
100.7869394
51
133.4384016
0
ARC
8
DEFAULT_255_1_234
10
14.6776934
20
14.1311319
40
0.5084616
50
89.6605301
51
101.3704185
0
ARC
8
DEFAULT_255_1_234
10
14.6843273
20
14.1372496
40
0.502348
50
78.2171172
51
90.4130393
0
ARC
8
DEFAULT_255_1_234
10
14.7198351
20
14.2996637
40
0.3361092
50
55.9268222
51
78.4888551
0
ARC
8
DEFAULT_255_1_234
10
14.7394791
20
14.3335324
40
0.2970617
50
47.9292255
51
55.4054003
0
ARC
8
DEFAULT_255_1_234
10
14.7496352
20
14.3438502
40
0.2825983
50
4.3347696
51
48.0560701
0
ARC
8
DEFAULT_255_1_234
10
14.6400745
20
14.3268601
40
0.393225
50
359.925209
51
5.5967654
0
ARC
8
DEFAULT_255_1_234
10
14.6829637
20
14.3324816
40
0.3503892
50
337.8914096
51
358.9967724
0
ARC
8
DEFAULT_255_1_234
10
14.4116049
20
14.4371706
40
0.6412172
50
326.9135351
51
338.3505194
0
ARC
8
DEFAULT_255_1_234
10
14.0130353
20
14.6926284
40
1.1146189
50
319.6472867
51
327.095818
0
ARC
8
DEFAULT_255_1_234
10
13.6297356
20
15.0088
40
1.6114559
50
317.2586784
51
319.9046139
0
ENDSEC
0
EOF