0
SECTION
2
HEADER
9
$MEASUREMENT
70
1
0
ENDSEC
0
SECTION
2
TABLES
0
TABLE
2
LTYPE
0
LTYPE
72
65
70
64
2
CONTINUOUS
3
______
73
0
40
0
0
ENDTAB
0
TABLE
2
LAYER
0
LAYER
2
DEFAULT_255_2_778
70
0
62
255
6
CONTINUOUS
0
LAYER
2
DEFAULT_255_1_234
70
0
62
255
6
CONTINUOUS
0
ENDTAB
0
ENDSEC
0
SECTION
2
ENTITIES
0
LINE
8
DEFAULT_255_2_778
10
9.3937337
20
10.4510499
11
35.8520337
21
10.4510499
0
LINE
8
DEFAULT_255_2_778
10
35.8520337
20
10.4510499
11
35.8520337
21
2.5135499
0
LINE
8
DEFAULT_255_2_778
10
35.8520337
20
2.5135499
11
9.3937337
21
2.5135499
0
LINE
8
DEFAULT_255_2_778
10
9.3937337
20
2.5135499
11
9.3937337
21
10.4510499
0
LINE
8
DEFAULT_255_2_778
10
12.0390834
20
2.5135499
11
14.6848834
21
10.4510499
0
LINE
8
DEFAULT_255_2_778
10
14.6848834
20
10.4510499
11
14.6848834
21
8.3343499
0
LINE
8
DEFAULT_255_2_778
10
14.6848834
20
8.3343499
11
13.4942834
21
8.8635499
0
LINE
8
DEFAULT_255_2_778
10
13.4942834
20
8.8635499
11
14.6848834
21
10.4510499
0
LINE
8
DEFAULT_255_2_778
10
12.0390417
20
4.6301333
11
13.3619417
21
4.1009333
0
LINE
8
DEFAULT_255_2_778
10
13.3619417
20
4.1009333
11
12.0390417
21
2.5134333
0
LINE
8
DEFAULT_255_2_778
10
12.0390417
20
2.5134333
11
12.0390417
21
4.6301333
0
LINE
8
DEFAULT_255_2_778
10
17.3307834
20
2.5135499
11
19.9765834
21
10.4510499
0
LINE
8
DEFAULT_255_2_778
10
19.9765834
20
10.4510499
11
19.9765834
21
8.3343499
0
LINE
8
DEFAULT_255_2_778
10
19.9765834
20
8.3343499
11
18.7859834
21
8.8635499
0
LINE
8
DEFAULT_255_2_778
10
18.7859834
20
8.8635499
11
19.9765834
21
10.4510499
0
LINE
8
DEFAULT_255_2_778
10
17.3307417
20
4.6301333
11
18.6536417
21
4.1009333
0
LINE
8
DEFAULT_255_2_778
10
18.6536417
20
4.1009333
11
17.3307417
21
2.5134333
0
LINE
8
DEFAULT_255_2_778
10
17.3307417
20
2.5134333
11
17.3307417
21
4.6301333
0
LINE
8
DEFAULT_255_2_778
10
22.6224
20
10.4510499
11
22.6224
21
2.5135499
0
LINE
8
DEFAULT_255_2_778
10
25.2682417
20
2.5135499
11
25.2682417
21
10.4510499
0
LINE
8
DEFAULT_255_2_778
10
25.2682417
20
10.4510499
11
24.6067417
21
8.4666499
0
LINE
8
DEFAULT_255_2_778
10
24.6067417
20
8.4666499
11
25.9296417
21
8.4666499
0
LINE
8
DEFAULT_255_2_778
10
25.9296417
20
8.4666499
11
25.2682417
21
10.4510499
0
LINE
8
DEFAULT_255_2_778
10
24.6067417
20
4.4978875
11
25.9296417
21
4.4978875
0
LINE
8
DEFAULT_255_2_778
10
25.9296417
20
4.4978875
11
25.2682417
21
2.5134875
0
LINE
8
DEFAULT_255_2_778
10
25.2682417
20
2.5134875
11
24.6067417
21
4.4978875
0
LINE
8
DEFAULT_255_2_778
10
30.5599417
20
2.5135499
11
30.5599417
21
10.4510499
0
LINE
8
DEFAULT_255_2_778
10
30.5599417
20
10.4510499
11
29.8984417
21
8.4666499
0
LINE
8
DEFAULT_255_2_778
10
29.8984417
20
8.4666499
11
31.2213417
21
8.4666499
0
LINE
8
DEFAULT_255_2_778
10
31.2213417
20
8.4666499
11
30.5599417
21
10.4510499
0
LINE
8
DEFAULT_255_2_778
10
29.8984417
20
4.4978875
11
31.2213417
21
4.4978875
0
LINE
8
DEFAULT_255_2_778
10
31.2213417
20
4.4978875
11
30.5599417
21
2.5134875
0
LINE
8
DEFAULT_255_2_778
10
30.5599417
20
2.5134875
11
29.8984417
21
4.4978875
0
LINE
8
DEFAULT_255_2_778
10
27.9141
20
15.7426499
11
27.9141
21
7.8051499
0
LINE
8
DEFAULT_255_2_778
10
28.5755417
20
7.8052
11
27.2526417
21
7.8052
0
LINE
8
DEFAULT_255_2_778
10
33.2057
20
15.7426499
11
33.2057
21
7.8051499
0
LINE
8
DEFAULT_255_2_778
10
33.8671417
20
7.8052
11
32.5442417
21
7.8052
0
LINE
8
DEFAULT_255_2_778
10
25.2682
20
10.4509333
11
25.2682
21
15.7426333
0
LINE
8
DEFAULT_255_2_778
10
30.5599
20
10.4509333
11
30.5599
21
15.7426333
0
LINE
8
DEFAULT_255_2_778
10
30.5599
20
2.5135333
11
30.5599
21
-2.7781667
0
LINE
8
DEFAULT_255_2_778
10
25.2682
20
2.5135333
11
25.2682
21
-2.7781667
0
LINE
8
DEFAULT_255_2_778
10
12.0391417
20
6.4822749
11
12.0391417
21
10.4509749
0
LINE
8
DEFAULT_255_2_778
10
12.0391417
20
10.4509749
11
11.3776417
21
8.4665749
0
LINE
8
DEFAULT_255_2_778
10
11.3776417
20
8.4665749
11
12.7005417
21
8.4665749
0
LINE
8
DEFAULT_255_2_778
10
12.7005417
20
8.4665749
11
12.0391417
21
10.4509749
0
LINE
8
DEFAULT_255_2_778
10
17.3307417
20
6.4822749
11
17.3307417
21
10.4509749
0
LINE
8
DEFAULT_255_2_778
10
17.3307417
20
10.4509749
11
17.9921417
21
8.4665749
0
LINE
8
DEFAULT_255_2_778
10
17.9921417
20
8.4665749
11
16.6692417
21
8.4665749
0
LINE
8
DEFAULT_255_2_778
10
16.6692417
20
8.4665749
11
17.3307417
21
10.4509749
0
LINE
8
DEFAULT_255_2_778
10
12.0390667
20
6.4823
11
17.3307667
21
6.4823
0
LINE
8
DEFAULT_255_2_778
10
14.6849417
20
2.5135749
11
14.0234417
21
4.4978749
0
LINE
8
DEFAULT_255_2_778
10
14.0234417
20
4.4978749
11
15.3463417
21
4.4978749
0
LINE
8
DEFAULT_255_2_778
10
15.3463417
20
4.4978749
11
14.6849417
21
2.5135749
0
LINE
8
DEFAULT_255_2_778
10
14.6849417
20
2.5135749
11
14.6849417
21
6.4822749
0
LINE
8
DEFAULT_255_2_778
10
27.9141
20
-2.7781501
11
27.9141
21
5.1593499
0
LINE
8
DEFAULT_255_2_778
10
27.2526417
20
5.1593
11
28.5755417
21
5.1593
0
LINE
8
DEFAULT_255_2_778
10
4.1004834
20
5.6885
11
6.7462834
21
5.6885
0
LINE
8
DEFAULT_255_2_778
10
6.7462834
20
5.6885
11
6.7462834
21
2.5135
0
LINE
8
DEFAULT_255_2_778
10
6.7462834
20
2.5135
11
4.1004834
21
2.5135
0
LINE
8
DEFAULT_255_2_778
10
4.1004834
20
2.5135
11
4.1004834
21
5.6885
0
LINE
8
DEFAULT_255_2_778
10
4.7630417
20
2.5135
11
6.0859417
21
5.6885
0
LINE
8
DEFAULT_255_2_778
10
35.8515834
20
3.7835
11
36.1455834
21
5.6885
0
LINE
8
DEFAULT_255_2_778
10
36.1455834
20
5.6885
11
36.5865834
21
2.5135
0
LINE
8
DEFAULT_255_2_778
10
36.5865834
20
2.5135
11
37.0273834
21
5.6885
0
LINE
8
DEFAULT_255_2_778
10
37.0273834
20
5.6885
11
37.4684834
21
2.5135
0
LINE
8
DEFAULT_255_2_778
10
37.4684834
20
2.5135
11
37.9094834
21
5.6885
0
LINE
8
DEFAULT_255_2_778
10
37.9094834
20
5.6885
11
38.3505834
21
2.5135
0
LINE
8
DEFAULT_255_2_778
10
38.3505834
20
2.5135
11
38.4973834
21
3.7835
0
LINE
8
DEFAULT_255_2_778
10
6.7489834
20
9.1214989
11
9.3947834
21
9.1214989
0
LINE
8
DEFAULT_255_2_778
10
9.3947834
20
9.1214989
11
9.3947834
21
2.5002989
0
LINE
8
DEFAULT_255_2_778
10
9.3947834
20
2.5002989
11
6.7489834
21
2.5002989
0
LINE
8
DEFAULT_255_2_778
10
6.7489834
20
2.5002989
11
6.7489834
21
9.1214989
0
LINE
8
DEFAULT_255_2_778
10
6.74895
20
9.1214989
11
8.33645
21
5.6784989
0
LINE
8
DEFAULT_255_2_778
10
8.33645
20
5.6784989
11
6.74895
21
2.5002989
0
LINE
8
DEFAULT_255_2_778
10
4.1005
20
9.9218
11
4.1005
21
6.7468
0
LINE
8
DEFAULT_255_2_778
10
4.1004834
20
9.1281
11
6.7462834
21
9.1281
0
LINE
8
DEFAULT_255_2_778
10
4.1004834
20
7.5406
11
6.7462834
21
7.5406
0
LINE
8
DEFAULT_255_1_234
10
22.8893137
20
-0.6674567
11
22.8893137
21
-1.8425
0
LINE
8
DEFAULT_255_1_234
10
22.8893137
20
-1.8425
11
22.7399234
21
-1.8425
0
LINE
8
DEFAULT_255_1_234
10
22.7399234
20
-1.8425
11
22.7399234
21
-0.8521867
0
LINE
8
DEFAULT_255_1_234
10
22.7399234
20
-0.8521867
11
22.4403396
21
-0.9622215
0
LINE
8
DEFAULT_255_1_234
10
22.4403396
20
-0.9622215
11
22.4403396
21
-0.8272883
0
LINE
8
DEFAULT_255_1_234
10
22.4403396
20
-0.8272883
11
22.8660217
21
-0.6674567
0
LINE
8
DEFAULT_255_1_234
10
22.8660217
20
-0.6674567
11
22.8893137
21
-0.6674567
0
LINE
8
DEFAULT_255_1_234
10
23.5406877
20
-1.3067831
11
23.5406877
21
-1.1855038
0
LINE
8
DEFAULT_255_1_234
10
23.5406877
20
-1.1855038
11
23.6523289
21
-1.1855038
0
LINE
8
DEFAULT_255_1_234
10
23.4619767
20
-0.9798913
11
23.3133895
21
-0.9798913
0
LINE
8
DEFAULT_255_1_234
10
23.3029482
20
-1.5340812
11
23.4523386
21
-1.5340812
0
LINE
8
DEFAULT_255_1_234
10
23.6523289
20
-1.3067831
11
23.5406877
21
-1.3067831
0
ARC
8
DEFAULT_255_1_234
10
23.6494155
20
-0.8462287
40
0.3392876
50
270.4919872
51
281.8951556
0
ARC
8
DEFAULT_255_1_234
10
23.6735417
20
-0.9564298
40
0.2264817
50
281.6691735
51
301.2943132
0
ARC
8
DEFAULT_255_1_234
10
23.6905627
20
-0.9875696
40
0.1910381
50
301.7833094
51
311.7545298
0
ARC
8
DEFAULT_255_1_234
10
23.6997203
20
-0.9977252
40
0.1773635
50
311.7323931
51
354.2802411
0
ARC
8
DEFAULT_255_1_234
10
23.6270828
20
-0.9852278
40
0.2509385
50
353.0937916
51
0.1181479
0
ARC
8
DEFAULT_255_1_234
10
23.5809613
20
-0.9804614
40
0.2970898
50
359.1805295
51
15.0453146
0
ARC
8
DEFAULT_255_1_234
10
23.715545
20
-0.9412008
40
0.1569564
50
13.9577229
51
77.6713066
0
ARC
8
DEFAULT_255_1_234
10
23.6768979
20
-1.0797051
40
0.3006298
50
76.1116566
51
90.7026153
0
ARC
8
DEFAULT_255_1_234
10
23.6709817
20
-1.0523455
40
0.2732568
50
89.5324876
51
103.531937
0
ARC
8
DEFAULT_255_1_234
10
23.6509261
20
-0.9724116
40
0.1908508
50
103.2931773
51
133.5619022
0
ARC
8
DEFAULT_255_1_234
10
23.646475
20
-0.9664625
40
0.1834746
50
133.8349307
51
173.5344437
0
ARC
8
DEFAULT_255_1_234
10
23.7187793
20
-0.9792787
40
0.2568033
50
172.5096846
51
180.1366907
0
ARC
8
DEFAULT_255_1_234
10
23.6236687
20
-0.9758378
40
0.3103056
50
155.3484492
51
180.7484736
0
ARC
8
DEFAULT_255_1_234
10
23.6187776
20
-0.9787154
40
0.3070957
50
131.5744599
51
154.4798489
0
ARC
8
DEFAULT_255_1_234
10
23.6500923
20
-1.010369
40
0.3515643
50
96.9875458
51
131.9690667
0
ARC
8
DEFAULT_255_1_234
10
23.6720403
20
-1.1349364
40
0.4779224
50
89.8596053
51
97.7825159
0
ARC
8
DEFAULT_255_1_234
10
23.6768466
20
-1.1611384
40
0.5041361
50
78.3655447
51
90.4131539
0
ARC
8
DEFAULT_255_1_234
10
23.7126384
20
-0.9952113
40
0.3344039
50
56.6229102
51
78.638727
0
ARC
8
DEFAULT_255_1_234
10
23.7341328
20
-0.9576195
40
0.2912001
50
47.0253525
51
56.0854072
0
ARC
8
DEFAULT_255_1_234
10
23.7361108
20
-0.9536777
40
0.2869704
50
10.9208013
51
46.7778124
0
ARC
8
DEFAULT_255_1_234
10
23.5997174
20
-0.9852143
40
0.426899
50
359.6364486
51
11.6087304
0
ARC
8
DEFAULT_255_1_234
10
23.7832018
20
-0.9867248
40
0.243409
50
332.3549906
51
359.7179418
0
ARC
8
DEFAULT_255_1_234
10
23.718162
20
-0.9558858
40
0.3153459
50
325.2333722
51
332.8745602
0
ARC
8
DEFAULT_255_1_234
10
23.7334244
20
-0.9665172
40
0.2967456
50
292.9802137
51
325.2392345
0
ARC
8
DEFAULT_255_1_234
10
23.7059617
20
-0.9131137
40
0.3566604
50
292.5402179
51
293.6924929
0
ARC
8
DEFAULT_255_1_234
10
23.7452213
20
-1.5585909
40
0.3307468
50
57.6435486
51
72.8625112
0
ARC
8
DEFAULT_255_1_234
10
23.7806713
20
-1.5011451
40
0.2632492
50
36.7248896
51
57.4697979
0
ARC
8
DEFAULT_255_1_234
10
23.7795346
20
-1.499878
40
0.2634081
50
8.0545065
51
36.356114
0
ARC
8
DEFAULT_255_1_234
10
23.6932531
20
-1.5153826
40
0.3510261
50
359.8320645
51
8.5869982
0
ARC
8
DEFAULT_255_1_234
10
23.6557307
20
-1.5201899
40
0.3885653
50
343.9829931
51
0.5571613
0
ARC
8
DEFAULT_255_1_234
10
23.7443504
20
-1.5444562
40
0.2966924
50
311.6359546
51
343.7651759
0
ARC
8
DEFAULT_255_1_234
10
23.7065074
20
-1.5017898
40
0.3537231
50
279.7829875
51
311.6255694
0
ARC
8
DEFAULT_255_1_234
10
23.676385
20
-1.358072
40
0.5004971
50
269.7286406
51
280.3856417
0
ARC
8
DEFAULT_255_1_234
10
23.6701922
20
-1.3622004
40
0.4963778
50
256.6828919
51
270.4412052
0
ARC
8
DEFAULT_255_1_234
10
23.6363218
20
-1.5006606
40
0.3538406
50
229.4223008
51
256.8556159
0
ARC
8
DEFAULT_255_1_234
10
23.5948611
20
-1.5473264
40
0.2914296
50
181.818294
51
229.6455059
0
ARC
8
DEFAULT_255_1_234
10
23.6988567
20
-1.5342504
40
0.3959084
50
179.9755256
51
183.2323064
0
ARC
8
DEFAULT_255_1_234
10
23.6816313
20
-1.5362963
40
0.2293034
50
179.4465117
51
196.2869258
0
ARC
8
DEFAULT_255_1_234
10
23.6328721
20
-1.5496349
40
0.1787621
50
196.5661473
51
227.705904
0
ARC
8
DEFAULT_255_1_234
10
23.6492816
20
-1.5312845
40
0.2033784
50
227.7652068
51
257.8762805
0
ARC
8
DEFAULT_255_1_234
10
23.6717786
20
-1.4369844
40
0.3003081
50
257.4584385
51
270.426602
0
ARC
8
DEFAULT_255_1_234
10
23.6763352
20
-1.4080004
40
0.329292
50
269.5962073
51
280.8789248
0
ARC
8
DEFAULT_255_1_234
10
23.6992881
20
-1.5226315
40
0.2123908
50
280.6346389
51
299.8595945
0
ARC
8
DEFAULT_255_1_234
10
23.7183788
20
-1.5588788
40
0.171457
50
300.3576302
51
314.5517981
0
ARC
8
DEFAULT_255_1_234
10
23.7100848
20
-1.5528081
40
0.1816095
50
315.0728369
51
345.0431014
0
ARC
8
DEFAULT_255_1_234
10
23.6177662
20
-1.5259159
40
0.2777492
50
344.5986631
51
357.9269593
0
ARC
8
DEFAULT_255_1_234
10
23.5281989
20
-1.5197724
40
0.3674917
50
357.4748886
51
0.0231117
0
ARC
8
DEFAULT_255_1_234
10
23.6305098
20
-1.5173321
40
0.2651907
50
359.5047933
51
13.4239635
0
ARC
8
DEFAULT_255_1_234
10
23.7171741
20
-1.4951522
40
0.1757509
50
12.9498199
51
48.7551375
0
ARC
8
DEFAULT_255_1_234
10
23.6989475
20
-1.52006
40
0.2065134
50
49.5088623
51
72.1836453
0
ARC
8
DEFAULT_255_1_234
10
23.6631628
20
-1.6262709
40
0.3185836
50
71.9010081
51
84.3554254
0
ARC
8
DEFAULT_255_1_234
10
23.647026
20
-1.7623674
40
0.4556151
50
84.0193428
51
89.333121
0
LINE
8
DEFAULT_255_1_234
10
24.4354233
20
-1.2867037
11
24.3165536
21
-1.2561831
0
LINE
8
DEFAULT_255_1_234
10
24.3165536
20
-1.2561831
11
24.3759885
21
-0.6730789
0
LINE
8
DEFAULT_255_1_234
10
24.3759885
20
-0.6730789
11
24.9751562
21
-0.6730789
0
LINE
8
DEFAULT_255_1_234
10
24.9751562
20
-0.6730789
11
24.9751562
21
-0.8104216
0
LINE
8
DEFAULT_255_1_234
10
24.9751562
20
-0.8104216
11
24.5020868
21
-0.8104216
0
LINE
8
DEFAULT_255_1_234
10
24.5020868
20
-0.8104216
11
24.4667471
21
-1.1292816
0
LINE
8
DEFAULT_255_1_234
10
24.2747886
20
-1.5348844
11
24.415344
21
-1.5348844
0
LINE
8
DEFAULT_255_1_234
10
24.4747789
20
-1.2545768
11
24.4354233
21
-1.2867037
0
ARC
8
DEFAULT_255_1_234
10
24.6522255
20
-1.447277
40
0.3681349
50
93.7182161
51
120.2538958
0
ARC
8
DEFAULT_255_1_234
10
24.6616518
20
-1.5280606
40
0.449379
50
89.9660152
51
94.2496022
0
ARC
8
DEFAULT_255_1_234
10
24.6657252
20
-1.4691451
40
0.390482
50
73.8043271
51
90.5585896
0
ARC
8
DEFAULT_255_1_234
10
24.6892149
20
-1.3833398
40
0.3015334
50
41.3071453
51
73.5430202
0
ARC
8
DEFAULT_255_1_234
10
24.6475976
20
-1.4191676
40
0.3564457
50
13.5075983
51
41.2174222
0
ARC
8
DEFAULT_255_1_234
10
24.483418
20
-1.4621514
40
0.5261351
50
1.1331335
51
13.8829381
0
ARC
8
DEFAULT_255_1_234
10
24.3422549
20
-1.4697335
40
0.6674378
50
359.9919444
51
1.544251
0
ARC
8
DEFAULT_255_1_234
10
24.4699375
20
-1.473872
40
0.5397702
50
347.8572367
51
0.4293338
0
ARC
8
DEFAULT_255_1_234
10
24.6449693
20
-1.5135264
40
0.3603188
50
323.673004
51
348.1672506
0
ARC
8
DEFAULT_255_1_234
10
24.6744201
20
-1.5314832
40
0.3259678
50
316.8171152
51
323.1492751
0
ARC
8
DEFAULT_255_1_234
10
24.680539
20
-1.535154
40
0.3189975
50
281.8396411
51
316.5457803
0
ARC
8
DEFAULT_255_1_234
10
24.6429654
20
-1.3796238
40
0.4789527
50
269.5770101
51
282.4214771
0
ARC
8
DEFAULT_255_1_234
10
24.6358465
20
-1.4009875
40
0.45759
50
256.2427136
51
270.4486331
0
ARC
8
DEFAULT_255_1_234
10
24.6059368
20
-1.5209771
40
0.3339303
50
228.9023911
51
256.3314342
0
ARC
8
DEFAULT_255_1_234
10
24.59856
20
-1.5326254
40
0.32031
50
193.753695
51
228.5271154
0
ARC
8
DEFAULT_255_1_234
10
24.7223554
20
-1.49632
40
0.4492253
50
184.924711
51
194.497588
0
ARC
8
DEFAULT_255_1_234
10
24.7416121
20
-1.4927409
40
0.3289787
50
187.3600538
51
198.6732863
0
ARC
8
DEFAULT_255_1_234
10
24.6366415
20
-1.5291326
40
0.217884
50
198.4451669
51
217.794479
0
ARC
8
DEFAULT_255_1_234
10
24.607059
20
-1.5500915
40
0.1816698
50
218.2887171
51
228.5612368
0
ARC
8
DEFAULT_255_1_234
10
24.6168377
20
-1.5369037
40
0.1980329
50
228.9654866
51
258.1234728
0
ARC
8
DEFAULT_255_1_234
10
24.6374087
20
-1.4488167
40
0.2884748
50
257.7258293
51
270.401361
0
ARC
8
DEFAULT_255_1_234
10
24.6418974
20
-1.4933179
40
0.2439788
50
269.4204404
51
286.4209037
0
ARC
8
DEFAULT_255_1_234
10
24.6567461
20
-1.5472343
40
0.1880666
50
286.7251356
51
320.600362
0
ARC
8
DEFAULT_255_1_234
10
24.6184286
20
-1.5161405
40
0.2374121
50
320.6712579
51
344.5441685
0
ARC
8
DEFAULT_255_1_234
10
24.5027612
20
-1.4821955
40
0.3579479
50
344.2412205
51
356.7357071
0
ARC
8
DEFAULT_255_1_234
10
24.3778761
20
-1.4718556
40
0.4832297
50
356.3548756
51
0.0500261
0
ARC
8
DEFAULT_255_1_234
10
24.511527
20
-1.468735
40
0.3495889
50
359.5576869
51
12.953486
0
ARC
8
DEFAULT_255_1_234
10
24.6170167
20
-1.4431566
40
0.2410532
50
12.6490276
51
41.6081334
0
ARC
8
DEFAULT_255_1_234
10
24.6400538
20
-1.4235679
40
0.2108218
50
41.7850273
51
85.9892764
0
ARC
8
DEFAULT_255_1_234
10
24.6277275
20
-1.5048538
40
0.2928454
50
84.6957577
51
90.0676183
0
ARC
8
DEFAULT_255_1_234
10
24.6253759
20
-1.5717284
40
0.3597255
50
89.6804936
51
99.1614436
0
ARC
8
DEFAULT_255_1_234
10
24.604839
20
-1.4489869
40
0.235281
50
98.9830931
51
113.8908934
0
ARC
8
DEFAULT_255_1_234
10
24.58188
20
-1.3948413
40
0.176479
50
114.1950727
51
127.3641004
0
LINE
8
DEFAULT_255_1_234
10
23.4384119
20
13.5753792
11
23.4384119
21
13.4541
0
LINE
8
DEFAULT_255_1_234
10
23.4384119
20
13.4541
11
22.672184
21
13.4541
0
LINE
8
DEFAULT_255_1_234
10
22.672184
20
13.4541
11
22.672184
21
13.5609221
0
LINE
8
DEFAULT_255_1_234
10
22.672184
20
13.5609221
11
23.0769836
21
14.0106995
0
LINE
8
DEFAULT_255_1_234
10
22.7982823
20
14.2789595
11
22.6496952
21
14.2789595
0
LINE
8
DEFAULT_255_1_234
10
23.1645296
20
13.9151218
11
22.8512918
21
13.5753792
0
LINE
8
DEFAULT_255_1_234
10
22.8512918
20
13.5753792
11
23.4384119
21
13.5753792
0
ARC
8
DEFAULT_255_1_234
10
21.727967
20
15.2036527
40
1.8008286
50
318.5132453
51
320.7828378
0
ARC
8
DEFAULT_255_1_234
10
22.2566644
20
14.7733426
40
1.1191493
50
320.7372736
51
323.9737074
0
ARC
8
DEFAULT_255_1_234
10
22.6486501
20
14.4893361
40
0.6350923
50
323.8961724
51
328.6421089
0
ARC
8
DEFAULT_255_1_234
10
22.8533096
20
14.3631031
40
0.3946393
50
328.8299013
51
331.789948
0
ARC
8
DEFAULT_255_1_234
10
22.9530274
20
14.3116509
40
0.2824501
50
331.4255242
51
352.9364833
0
ARC
8
DEFAULT_255_1_234
10
22.9666775
20
14.3085976
40
0.2685315
50
353.2248685
51
0.0169286
0
ARC
8
DEFAULT_255_1_234
10
22.9876652
20
14.310895
40
0.2475536
50
359.4866256
51
15.9339782
0
ARC
8
DEFAULT_255_1_234
10
23.0383637
20
14.3245286
40
0.1950618
50
16.1714718
51
43.5284424
0
ARC
8
DEFAULT_255_1_234
10
23.0460946
20
14.3322573
40
0.184134
50
43.4415429
51
83.1661404
0
ARC
8
DEFAULT_255_1_234
10
23.0326864
20
14.2585771
40
0.258926
50
82.160215
51
90.1505798
0
ARC
8
DEFAULT_255_1_234
10
23.0295291
20
14.2048865
40
0.3126255
50
89.5460705
51
102.5418777
0
ARC
8
DEFAULT_255_1_234
10
23.0052377
20
14.3079665
40
0.2067346
50
102.1739365
51
129.2061916
0
ARC
8
DEFAULT_255_1_234
10
22.9973449
20
14.3204094
40
0.1921118
50
129.7279328
51
135.7542026
0
ARC
8
DEFAULT_255_1_234
10
23.0094977
20
14.3107045
40
0.2075944
50
136.175737
51
166.3674722
0
ARC
8
DEFAULT_255_1_234
10
23.1101896
20
14.2837182
40
0.3118201
50
165.9092917
51
178.8683903
0
ARC
8
DEFAULT_255_1_234
10
23.1966757
20
14.2790179
40
0.3983935
50
178.438168
51
180.0083905
0
ARC
8
DEFAULT_255_1_234
10
23.0565359
20
14.2829231
40
0.4068601
50
163.2878735
51
180.5581814
0
ARC
8
DEFAULT_255_1_234
10
22.9763621
20
14.304984
40
0.3237344
50
133.454115
51
162.9470031
0
ARC
8
DEFAULT_255_1_234
10
22.9942162
20
14.286
40
0.349795
50
100.7869394
51
133.4384016
0
ARC
8
DEFAULT_255_1_234
10
23.0289934
20
14.1311319
40
0.5084616
50
89.6605301
51
101.3704185
0
ARC
8
DEFAULT_255_1_234
10
23.0356273
20
14.1372496
40
0.502348
50
78.2171172
51
90.4130393
0
ARC
8
DEFAULT_255_1_234
10
23.0711351
20
14.2996637
40
0.3361092
50
55.9268222
51
78.4888551
0
ARC
8
DEFAULT_255_1_234
10
23.0907791
20
14.3335324
40
0.2970617
50
47.9292255
51
55.4054003
0
ARC
8
DEFAULT_255_1_234
10
23.1009352
20
14.3438502
40
0.2825983
50
4.3347696
51
48.0560701
0
ARC
8
DEFAULT_255_1_234
10
22.9913745
20
14.3268601
40
0.393225
50
359.925209
51
5.5967654
0
ARC
8
DEFAULT_255_1_234
10
23.0342637
20
14.3324816
40
0.3503892
50
337.8914096
51
358.9967724
0
ARC
8
DEFAULT_255_1_234
10
22.7629049
20
14.4371706
40
0.6412172
50
326.9135351
51
338.3505194
0
ARC
8
DEFAULT_255_1_234
10
22.3643353
20
14.6926284
40
1.1146189
50
319.6472867
51
327.095818
0
ARC
8
DEFAULT_255_1_234
10
21.9810356
20
15.0088
40
1.6114559
50
317.2586784
51
319.9046139
0
LINE
8
DEFAULT_255_1_234
10
24.2231127
20
14.6235211
11
24.2231127
21
13.846852
0
LINE
8
DEFAULT_255_1_234
10
24.2231127
20
13.846852
11
24.3853538
21
13.846852
0
LINE
8
DEFAULT_255_1_234
10
24.3853538
20
13.846852
11
24.3853538
21
13.7255728
0
LINE
8
DEFAULT_255_1_234
10
24.3853538
20
13.7255728
11
24.2231127
21
13.7255728
0
LINE
8
DEFAULT_255_1_234
10
24.2231127
20
13.7255728
11
24.2231127
21
13.4541
0
LINE
8
DEFAULT_255_1_234
10
24.2231127
20
13.4541
11
24.0737224
21
13.4541
0
LINE
8
DEFAULT_255_1_234
10
24.0737224
20
13.4541
11
24.0737224
21
13.7255728
0
LINE
8
DEFAULT_255_1_234
10
24.0737224
20
13.7255728
11
23.5412181
21
13.7255728
0
LINE
8
DEFAULT_255_1_234
10
23.5412181
20
13.7255728
11
23.5412181
21
13.8131187
0
LINE
8
DEFAULT_255_1_234
10
23.5412181
20
13.8131187
11
24.0648875
21
14.6235211
0
LINE
8
DEFAULT_255_1_234
10
24.0648875
20
14.6235211
11
24.2231127
21
14.6235211
0
LINE
8
DEFAULT_255_1_234
10
24.0560525
20
14.3881912
11
23.7098846
21
13.846852
0
LINE
8
DEFAULT_255_1_234
10
23.7098846
20
13.846852
11
24.0737224
21
13.846852
0
LINE
8
DEFAULT_255_1_234
10
24.0737224
20
13.846852
11
24.0737224
21
14.4203181
0
LINE
8
DEFAULT_255_1_234
10
24.0737224
20
14.4203181
11
24.0560525
21
14.3881912
0
LINE
8
DEFAULT_255_1_234
10
25.0760833
20
14.6243243
11
25.102588
21
14.6243243
0
LINE
8
DEFAULT_255_1_234
10
25.102588
20
14.6243243
11
25.102588
21
14.498226
0
LINE
8
DEFAULT_255_1_234
10
25.102588
20
14.498226
11
25.0752801
21
14.498226
0
LINE
8
DEFAULT_255_1_234
10
24.5283187
20
13.8990583
11
24.5283187
21
13.9560836
0
LINE
8
DEFAULT_255_1_234
10
24.6777091
20
13.9368075
11
24.6777091
21
13.8821917
0
ARC
8
DEFAULT_255_1_234
10
25.0805149
20
13.9984455
40
0.4998079
50
90.6001036
51
104.514704
0
ARC
8
DEFAULT_255_1_234
10
25.0416665
20
14.1429131
40
0.3502176
50
104.2855254
51
133.862935
0
ARC
8
DEFAULT_255_1_234
10
25.0580422
20
14.132083
40
0.3693984
50
134.5302688
51
161.6210873
0
ARC
8
DEFAULT_255_1_234
10
25.2233611
20
14.0737895
40
0.5446739
50
161.2849839
51
174.2076652
0
ARC
8
DEFAULT_255_1_234
10
25.3640548
20
14.0543787
40
0.6866274
50
173.7810589
51
174.9254635
0
ARC
8
DEFAULT_255_1_234
10
24.909038
20
13.9160839
40
0.3033419
50
95.8330959
51
138.9954921
0
ARC
8
DEFAULT_255_1_234
10
24.9313736
20
13.7882375
40
0.4328947
50
89.8753725
51
97.0544009
0
ARC
8
DEFAULT_255_1_234
10
24.9361202
20
13.8717748
40
0.3493769
50
71.6407809
51
90.6240094
0
ARC
8
DEFAULT_255_1_234
10
24.9511775
20
13.9272082
40
0.2920396
50
39.6367836
51
71.019018
0
ARC
8
DEFAULT_255_1_234
10
24.8875248
20
13.8721998
40
0.3761538
50
10.658731
51
39.9043955
0
ARC
8
DEFAULT_255_1_234
10
24.7327331
20
13.8385686
40
0.5345136
50
359.682601
51
11.132623
0
ARC
8
DEFAULT_255_1_234
10
24.7287462
20
13.831501
40
0.5385081
50
347.2486944
51
0.4369317
0
ARC
8
DEFAULT_255_1_234
10
24.8954939
20
13.7913807
40
0.3670249
50
318.1409698
51
347.6118597
0
ARC
8
DEFAULT_255_1_234
10
24.9279932
20
13.7646702
40
0.3250007
50
275.6342139
51
317.8248465
0
ARC
8
DEFAULT_255_1_234
10
24.9059043
20
13.8946219
40
0.4565864
50
269.8874292
51
276.7917694
0
ARC
8
DEFAULT_255_1_234
10
24.9004114
20
13.7920743
40
0.3540676
50
246.9140195
51
270.7437342
0
ARC
8
DEFAULT_255_1_234
10
24.9010504
20
13.7778384
40
0.3412781
50
218.1665114
51
245.878116
0
ARC
8
DEFAULT_255_1_234
10
24.9889965
20
13.8514279
40
0.455911
50
191.4115814
51
218.6077802
0
ARC
8
DEFAULT_255_1_234
10
25.1828054
20
13.8948833
40
0.6545001
50
179.6345085
51
191.7836486
0
ARC
8
DEFAULT_255_1_234
10
25.7410391
20
13.9627697
40
1.2127388
50
171.4525249
51
180.3158839
0
ARC
8
DEFAULT_255_1_234
10
25.3015267
20
14.0311608
40
0.7679464
50
157.9802646
51
171.6246686
0
ARC
8
DEFAULT_255_1_234
10
25.0801288
20
14.1194421
40
0.5296008
50
141.4298019
51
157.854097
0
ARC
8
DEFAULT_255_1_234
10
25.0159608
20
14.1648381
40
0.4511509
50
102.8715806
51
140.8564722
0
ARC
8
DEFAULT_255_1_234
10
25.0807224
20
13.9208552
40
0.7034845
50
90.3778349
51
103.5869322
0
ARC
8
DEFAULT_255_1_234
10
24.9069
20
13.860373
40
0.2370698
50
89.8751008
51
126.2071704
0
ARC
8
DEFAULT_255_1_234
10
24.911479
20
13.8449303
40
0.2522934
50
124.9745049
51
144.895901
0
ARC
8
DEFAULT_255_1_234
10
24.893898
20
13.859256
40
0.2296779
50
145.2974905
51
160.2660252
0
ARC
8
DEFAULT_255_1_234
10
25.2011519
20
13.8790071
40
0.5234525
50
179.6514266
51
190.2855912
0
ARC
8
DEFAULT_255_1_234
10
25.0317656
20
13.8470786
40
0.3510893
50
190.0945431
51
207.5098196
0
ARC
8
DEFAULT_255_1_234
10
24.9751926
20
13.8201623
40
0.288489
50
207.9583163
51
216.3251085
0
ARC
8
DEFAULT_255_1_234
10
24.9412034
20
13.7922105
40
0.2445587
50
215.7661442
51
232.5456785
0
ARC
8
DEFAULT_255_1_234
10
24.9029017
20
13.7435482
40
0.1826382
50
232.8005391
51
270.6605633
0
ARC
8
DEFAULT_255_1_234
10
24.9074718
20
13.7799612
40
0.2190529
50
269.35537
51
288.4744281
0
ARC
8
DEFAULT_255_1_234
10
24.9167615
20
13.7450118
40
0.1829749
50
289.1833337
51
322.9683818
0
ARC
8
DEFAULT_255_1_234
10
24.8556137
20
13.7932391
40
0.2608399
50
322.6007884
51
346.5182367
0
ARC
8
DEFAULT_255_1_234
10
24.7398733
20
13.8227616
40
0.3802777
50
346.2582162
51
358.7741648
0
ARC
8
DEFAULT_255_1_234
10
24.6380402
20
13.8282965
40
0.4822176
50
358.3755224
51
0.0098023
0
ARC
8
DEFAULT_255_1_234
10
24.7136589
20
13.8310657
40
0.4066078
50
359.6214041
51
11.2839074
0
ARC
8
DEFAULT_255_1_234
10
24.8413736
20
13.8577066
40
0.2761514
50
11.0482309
51
31.8146458
0
ARC
8
DEFAULT_255_1_234
10
24.8722779
20
13.8744584
40
0.2410679
50
32.3035391
51
38.082671
0
ARC
8
DEFAULT_255_1_234
10
24.9143439
20
13.9125662
40
0.1844966
50
36.825067
51
85.7415724
0
ARC
8
DEFAULT_255_1_234
10
24.9076272
20
13.8625301
40
0.2349122
50
85.0140713
51
90.0513278
0
LINE
8
DEFAULT_255_1_234
10
26.1981171
20
14.6235211
11
26.1981171
21
14.539991
0
LINE
8
DEFAULT_255_1_234
10
26.1981171
20
14.539991
11
25.7138033
21
13.4541
0
LINE
8
DEFAULT_255_1_234
10
25.7138033
20
13.4541
11
25.5579876
21
13.4541
0
LINE
8
DEFAULT_255_1_234
10
25.5579876
20
13.4541
11
26.0406951
21
14.5014387
0
LINE
8
DEFAULT_255_1_234
10
26.0406951
20
14.5014387
11
25.4077941
21
14.5014387
0
LINE
8
DEFAULT_255_1_234
10
25.4077941
20
14.5014387
11
25.4077941
21
14.6235211
0
LINE
8
DEFAULT_255_1_234
10
25.4077941
20
14.6235211
11
26.1981171
21
14.6235211
0
ENDSEC
0
EOF