0
SECTION
2
HEADER
9
$MEASUREMENT
70
1
0
ENDSEC
0
SECTION
2
TABLES
0
TABLE
2
LTYPE
0
LTYPE
72
65
70
64
2
CONTINUOUS
3
______
73
0
40
0
0
ENDTAB
0
TABLE
2
LAYER
0
LAYER
2
DEFAULT_255_2_778
70
0
62
255
6
CONTINUOUS
0
LAYER
2
DEFAULT_255_1_234
70
0
62
255
6
CONTINUOUS
0
ENDTAB
0
ENDSEC
0
SECTION
2
ENTITIES
0
LINE
8
DEFAULT_255_2_778
10
9.3924337
20
9.1281499
11
35.8507337
21
9.1281499
0
LINE
8
DEFAULT_255_2_778
10
35.8507337
20
9.1281499
11
35.8507337
21
1.1906499
0
LINE
8
DEFAULT_255_2_778
10
35.8507337
20
1.1906499
11
9.3924337
21
1.1906499
0
LINE
8
DEFAULT_255_2_778
10
9.3924337
20
1.1906499
11
9.3924337
21
9.1281499
0
LINE
8
DEFAULT_255_2_778
10
12.0382834
20
1.1906499
11
14.6840834
21
9.1281499
0
LINE
8
DEFAULT_255_2_778
10
14.6840834
20
9.1281499
11
14.6840834
21
7.0114499
0
LINE
8
DEFAULT_255_2_778
10
14.6840834
20
7.0114499
11
13.4934834
21
7.5406499
0
LINE
8
DEFAULT_255_2_778
10
13.4934834
20
7.5406499
11
14.6840834
21
9.1281499
0
LINE
8
DEFAULT_255_2_778
10
12.0382417
20
3.3073333
11
13.3611417
21
2.7781333
0
LINE
8
DEFAULT_255_2_778
10
13.3611417
20
2.7781333
11
12.0382417
21
1.1906333
0
LINE
8
DEFAULT_255_2_778
10
12.0382417
20
1.1906333
11
12.0382417
21
3.3073333
0
LINE
8
DEFAULT_255_2_778
10
17.3299834
20
1.1906499
11
19.9757834
21
9.1281499
0
LINE
8
DEFAULT_255_2_778
10
19.9757834
20
9.1281499
11
19.9757834
21
7.0114499
0
LINE
8
DEFAULT_255_2_778
10
19.9757834
20
7.0114499
11
18.7851834
21
7.5406499
0
LINE
8
DEFAULT_255_2_778
10
18.7851834
20
7.5406499
11
19.9757834
21
9.1281499
0
LINE
8
DEFAULT_255_2_778
10
17.3299417
20
3.3073333
11
18.6528417
21
2.7781333
0
LINE
8
DEFAULT_255_2_778
10
18.6528417
20
2.7781333
11
17.3299417
21
1.1906333
0
LINE
8
DEFAULT_255_2_778
10
17.3299417
20
1.1906333
11
17.3299417
21
3.3073333
0
LINE
8
DEFAULT_255_2_778
10
22.6216
20
9.1281499
11
22.6216
21
1.1906499
0
LINE
8
DEFAULT_255_2_778
10
25.2674417
20
1.1906499
11
25.2674417
21
9.1281499
0
LINE
8
DEFAULT_255_2_778
10
25.2674417
20
9.1281499
11
24.6059417
21
7.1437499
0
LINE
8
DEFAULT_255_2_778
10
24.6059417
20
7.1437499
11
25.9288417
21
7.1437499
0
LINE
8
DEFAULT_255_2_778
10
25.9288417
20
7.1437499
11
25.2674417
21
9.1281499
0
LINE
8
DEFAULT_255_2_778
10
24.6059417
20
3.1749875
11
25.9288417
21
3.1749875
0
LINE
8
DEFAULT_255_2_778
10
25.9288417
20
3.1749875
11
25.2674417
21
1.1905875
0
LINE
8
DEFAULT_255_2_778
10
25.2674417
20
1.1905875
11
24.6059417
21
3.1749875
0
LINE
8
DEFAULT_255_2_778
10
30.5591417
20
1.1906499
11
30.5591417
21
9.1281499
0
LINE
8
DEFAULT_255_2_778
10
30.5591417
20
9.1281499
11
29.8976417
21
7.1437499
0
LINE
8
DEFAULT_255_2_778
10
29.8976417
20
7.1437499
11
31.2205417
21
7.1437499
0
LINE
8
DEFAULT_255_2_778
10
31.2205417
20
7.1437499
11
30.5591417
21
9.1281499
0
LINE
8
DEFAULT_255_2_778
10
29.8976417
20
3.1749875
11
31.2205417
21
3.1749875
0
LINE
8
DEFAULT_255_2_778
10
31.2205417
20
3.1749875
11
30.5591417
21
1.1905875
0
LINE
8
DEFAULT_255_2_778
10
30.5591417
20
1.1905875
11
29.8976417
21
3.1749875
0
LINE
8
DEFAULT_255_2_778
10
27.9133
20
13.0968916
11
27.9133
21
6.4822916
0
LINE
8
DEFAULT_255_2_778
10
28.5747417
20
6.4823
11
27.2518417
21
6.4823
0
LINE
8
DEFAULT_255_2_778
10
33.2049
20
13.0968916
11
33.2049
21
6.4822916
0
LINE
8
DEFAULT_255_2_778
10
33.8663417
20
6.4823
11
32.5434417
21
6.4823
0
LINE
8
DEFAULT_255_2_778
10
25.2674
20
9.1281749
11
25.2674
21
13.0968749
0
LINE
8
DEFAULT_255_2_778
10
30.5591
20
9.1281749
11
30.5591
21
13.0968749
0
LINE
8
DEFAULT_255_2_778
10
30.5591
20
1.1906749
11
30.5591
21
-2.7780251
0
LINE
8
DEFAULT_255_2_778
10
25.2674
20
1.1906749
11
25.2674
21
-2.7780251
0
LINE
8
DEFAULT_255_2_778
10
12.0383417
20
5.1594749
11
12.0383417
21
9.1281749
0
LINE
8
DEFAULT_255_2_778
10
12.0383417
20
9.1281749
11
11.3768417
21
7.1437749
0
LINE
8
DEFAULT_255_2_778
10
11.3768417
20
7.1437749
11
12.6997417
21
7.1437749
0
LINE
8
DEFAULT_255_2_778
10
12.6997417
20
7.1437749
11
12.0383417
21
9.1281749
0
LINE
8
DEFAULT_255_2_778
10
17.3299417
20
5.1594749
11
17.3299417
21
9.1281749
0
LINE
8
DEFAULT_255_2_778
10
17.3299417
20
9.1281749
11
17.9913417
21
7.1437749
0
LINE
8
DEFAULT_255_2_778
10
17.9913417
20
7.1437749
11
16.6684417
21
7.1437749
0
LINE
8
DEFAULT_255_2_778
10
16.6684417
20
7.1437749
11
17.3299417
21
9.1281749
0
LINE
8
DEFAULT_255_2_778
10
17.3299667
20
5.1594
11
12.0382667
21
5.1594
0
LINE
8
DEFAULT_255_2_778
10
14.6841417
20
1.1906749
11
14.0226417
21
3.1749749
0
LINE
8
DEFAULT_255_2_778
10
14.0226417
20
3.1749749
11
15.3455417
21
3.1749749
0
LINE
8
DEFAULT_255_2_778
10
15.3455417
20
3.1749749
11
14.6841417
21
1.1906749
0
LINE
8
DEFAULT_255_2_778
10
14.6841417
20
1.1906749
11
14.6841417
21
5.1593749
0
LINE
8
DEFAULT_255_2_778
10
27.9133
20
-2.7781084
11
27.9133
21
3.8364916
0
LINE
8
DEFAULT_255_2_778
10
27.2518417
20
3.8365
11
28.5747417
21
3.8365
0
LINE
8
DEFAULT_255_2_778
10
9.3924417
20
2.5135
11
8.0695417
21
2.5135
0
LINE
8
DEFAULT_255_2_778
10
6.7466417
20
1.1906166
11
8.0695417
21
2.5135166
0
LINE
8
DEFAULT_255_2_778
10
8.0695417
20
2.5135166
11
6.7466417
21
3.8364166
0
LINE
8
DEFAULT_255_2_778
10
6.7466417
20
3.8364166
11
6.7466417
21
1.1906166
0
LINE
8
DEFAULT_255_2_778
10
6.7465834
20
2.5135
11
4.1007834
21
2.5135
0
LINE
8
DEFAULT_255_2_778
10
35.8508188
20
2.4606
11
36.1448188
21
4.3656
0
LINE
8
DEFAULT_255_2_778
10
36.1448188
20
4.3656
11
36.5858188
21
1.1906
0
LINE
8
DEFAULT_255_2_778
10
36.5858188
20
1.1906
11
37.0269188
21
4.3656
0
LINE
8
DEFAULT_255_2_778
10
37.0269188
20
4.3656
11
37.4679188
21
1.1906
0
LINE
8
DEFAULT_255_2_778
10
37.4679188
20
1.1906
11
37.9090188
21
4.3656
0
LINE
8
DEFAULT_255_2_778
10
37.9090188
20
4.3656
11
38.3501188
21
1.1906
0
LINE
8
DEFAULT_255_2_778
10
38.3501188
20
1.1906
11
38.4972188
21
2.4606
0
LINE
8
DEFAULT_255_1_234
10
22.8896137
20
-0.6674567
11
22.8896137
21
-1.8425
0
LINE
8
DEFAULT_255_1_234
10
22.8896137
20
-1.8425
11
22.7402234
21
-1.8425
0
LINE
8
DEFAULT_255_1_234
10
22.7402234
20
-1.8425
11
22.7402234
21
-0.8521867
0
LINE
8
DEFAULT_255_1_234
10
22.7402234
20
-0.8521867
11
22.4406396
21
-0.9622215
0
LINE
8
DEFAULT_255_1_234
10
22.4406396
20
-0.9622215
11
22.4406396
21
-0.8272883
0
LINE
8
DEFAULT_255_1_234
10
22.4406396
20
-0.8272883
11
22.8663217
21
-0.6674567
0
LINE
8
DEFAULT_255_1_234
10
22.8663217
20
-0.6674567
11
22.8896137
21
-0.6674567
0
LINE
8
DEFAULT_255_1_234
10
23.5409877
20
-1.3067831
11
23.5409877
21
-1.1855038
0
LINE
8
DEFAULT_255_1_234
10
23.5409877
20
-1.1855038
11
23.6526289
21
-1.1855038
0
LINE
8
DEFAULT_255_1_234
10
23.4622767
20
-0.9798913
11
23.3136895
21
-0.9798913
0
LINE
8
DEFAULT_255_1_234
10
23.3032482
20
-1.5340813
11
23.4526386
21
-1.5340813
0
LINE
8
DEFAULT_255_1_234
10
23.6526289
20
-1.3067831
11
23.5409877
21
-1.3067831
0
ARC
8
DEFAULT_255_1_234
10
23.6497155
20
-0.8462287
40
0.3392876
50
270.4919872
51
281.8951556
0
ARC
8
DEFAULT_255_1_234
10
23.6738417
20
-0.9564298
40
0.2264817
50
281.6691735
51
301.2943132
0
ARC
8
DEFAULT_255_1_234
10
23.6908627
20
-0.9875696
40
0.1910381
50
301.7833094
51
311.7545298
0
ARC
8
DEFAULT_255_1_234
10
23.7000203
20
-0.9977252
40
0.1773635
50
311.7323931
51
354.2802411
0
ARC
8
DEFAULT_255_1_234
10
23.6273828
20
-0.9852278
40
0.2509385
50
353.0937916
51
0.1181479
0
ARC
8
DEFAULT_255_1_234
10
23.5812613
20
-0.9804614
40
0.2970898
50
359.1805295
51
15.0453146
0
ARC
8
DEFAULT_255_1_234
10
23.715845
20
-0.9412008
40
0.1569564
50
13.9577229
51
77.6713066
0
ARC
8
DEFAULT_255_1_234
10
23.6771979
20
-1.0797051
40
0.3006298
50
76.1116566
51
90.7026153
0
ARC
8
DEFAULT_255_1_234
10
23.6712817
20
-1.0523455
40
0.2732568
50
89.5324876
51
103.531937
0
ARC
8
DEFAULT_255_1_234
10
23.6512261
20
-0.9724116
40
0.1908508
50
103.2931773
51
133.5619022
0
ARC
8
DEFAULT_255_1_234
10
23.646775
20
-0.9664625
40
0.1834746
50
133.8349307
51
173.5344437
0
ARC
8
DEFAULT_255_1_234
10
23.7190793
20
-0.9792787
40
0.2568033
50
172.5096846
51
180.1366907
0
ARC
8
DEFAULT_255_1_234
10
23.6239687
20
-0.9758378
40
0.3103056
50
155.3484492
51
180.7484736
0
ARC
8
DEFAULT_255_1_234
10
23.6190776
20
-0.9787154
40
0.3070957
50
131.5744599
51
154.4798489
0
ARC
8
DEFAULT_255_1_234
10
23.6503923
20
-1.010369
40
0.3515643
50
96.9875458
51
131.9690667
0
ARC
8
DEFAULT_255_1_234
10
23.6723403
20
-1.1349364
40
0.4779224
50
89.8596053
51
97.7825159
0
ARC
8
DEFAULT_255_1_234
10
23.6771466
20
-1.1611384
40
0.5041361
50
78.3655447
51
90.4131539
0
ARC
8
DEFAULT_255_1_234
10
23.7129384
20
-0.9952113
40
0.3344039
50
56.6229102
51
78.638727
0
ARC
8
DEFAULT_255_1_234
10
23.7344328
20
-0.9576195
40
0.2912001
50
47.0253525
51
56.0854072
0
ARC
8
DEFAULT_255_1_234
10
23.7364108
20
-0.9536777
40
0.2869704
50
10.9208013
51
46.7778124
0
ARC
8
DEFAULT_255_1_234
10
23.6000174
20
-0.9852143
40
0.426899
50
359.6364486
51
11.6087304
0
ARC
8
DEFAULT_255_1_234
10
23.7835018
20
-0.9867248
40
0.243409
50
332.3549906
51
359.7179418
0
ARC
8
DEFAULT_255_1_234
10
23.718462
20
-0.9558858
40
0.3153459
50
325.2333722
51
332.8745602
0
ARC
8
DEFAULT_255_1_234
10
23.7337244
20
-0.9665172
40
0.2967456
50
292.9802137
51
325.2392345
0
ARC
8
DEFAULT_255_1_234
10
23.7062617
20
-0.9131137
40
0.3566604
50
292.5402179
51
293.6924929
0
ARC
8
DEFAULT_255_1_234
10
23.7455213
20
-1.5585909
40
0.3307468
50
57.6435486
51
72.8625112
0
ARC
8
DEFAULT_255_1_234
10
23.7809713
20
-1.5011451
40
0.2632492
50
36.7248896
51
57.4697979
0
ARC
8
DEFAULT_255_1_234
10
23.7798346
20
-1.499878
40
0.2634081
50
8.0545065
51
36.356114
0
ARC
8
DEFAULT_255_1_234
10
23.6935531
20
-1.5153826
40
0.3510261
50
359.8320645
51
8.5869982
0
ARC
8
DEFAULT_255_1_234
10
23.6560307
20
-1.5201899
40
0.3885653
50
343.9829931
51
0.5571613
0
ARC
8
DEFAULT_255_1_234
10
23.7446504
20
-1.5444562
40
0.2966924
50
311.6359546
51
343.7651759
0
ARC
8
DEFAULT_255_1_234
10
23.7068074
20
-1.5017898
40
0.3537231
50
279.7829875
51
311.6255694
0
ARC
8
DEFAULT_255_1_234
10
23.676685
20
-1.358072
40
0.5004971
50
269.7286406
51
280.3856417
0
ARC
8
DEFAULT_255_1_234
10
23.6704922
20
-1.3622004
40
0.4963778
50
256.6828919
51
270.4412052
0
ARC
8
DEFAULT_255_1_234
10
23.6366218
20
-1.5006606
40
0.3538406
50
229.4223008
51
256.8556159
0
ARC
8
DEFAULT_255_1_234
10
23.5951611
20
-1.5473264
40
0.2914296
50
181.818294
51
229.6455059
0
ARC
8
DEFAULT_255_1_234
10
23.6991567
20
-1.5342504
40
0.3959084
50
179.9755256
51
183.2323064
0
ARC
8
DEFAULT_255_1_234
10
23.6819313
20
-1.5362963
40
0.2293034
50
179.4465117
51
196.2869258
0
ARC
8
DEFAULT_255_1_234
10
23.6331721
20
-1.5496349
40
0.1787621
50
196.5661473
51
227.705904
0
ARC
8
DEFAULT_255_1_234
10
23.6495816
20
-1.5312845
40
0.2033784
50
227.7652068
51
257.8762805
0
ARC
8
DEFAULT_255_1_234
10
23.6720786
20
-1.4369844
40
0.3003081
50
257.4584385
51
270.426602
0
ARC
8
DEFAULT_255_1_234
10
23.6766352
20
-1.4080004
40
0.329292
50
269.5962073
51
280.8789248
0
ARC
8
DEFAULT_255_1_234
10
23.6995881
20
-1.5226315
40
0.2123908
50
280.6346389
51
299.8595945
0
ARC
8
DEFAULT_255_1_234
10
23.7186788
20
-1.5588788
40
0.171457
50
300.3576302
51
314.5517981
0
ARC
8
DEFAULT_255_1_234
10
23.7103848
20
-1.5528081
40
0.1816095
50
315.0728369
51
345.0431014
0
ARC
8
DEFAULT_255_1_234
10
23.6180662
20
-1.5259159
40
0.2777492
50
344.5986631
51
357.9269593
0
ARC
8
DEFAULT_255_1_234
10
23.5284989
20
-1.5197724
40
0.3674917
50
357.4748886
51
0.0231117
0
ARC
8
DEFAULT_255_1_234
10
23.6308098
20
-1.5173321
40
0.2651907
50
359.5047933
51
13.4239635
0
ARC
8
DEFAULT_255_1_234
10
23.7174741
20
-1.4951522
40
0.1757509
50
12.9498199
51
48.7551375
0
ARC
8
DEFAULT_255_1_234
10
23.6992475
20
-1.52006
40
0.2065134
50
49.5088623
51
72.1836453
0
ARC
8
DEFAULT_255_1_234
10
23.6634628
20
-1.6262709
40
0.3185836
50
71.9010081
51
84.3554254
0
ARC
8
DEFAULT_255_1_234
10
23.647326
20
-1.7623674
40
0.4556151
50
84.0193428
51
89.333121
0
LINE
8
DEFAULT_255_1_234
10
24.4357233
20
-1.2867037
11
24.3168536
21
-1.2561831
0
LINE
8
DEFAULT_255_1_234
10
24.3168536
20
-1.2561831
11
24.3762885
21
-0.6730789
0
LINE
8
DEFAULT_255_1_234
10
24.3762885
20
-0.6730789
11
24.9754562
21
-0.6730789
0
LINE
8
DEFAULT_255_1_234
10
24.9754562
20
-0.6730789
11
24.9754562
21
-0.8104216
0
LINE
8
DEFAULT_255_1_234
10
24.9754562
20
-0.8104216
11
24.5023868
21
-0.8104216
0
LINE
8
DEFAULT_255_1_234
10
24.5023868
20
-0.8104216
11
24.4670471
21
-1.1292816
0
LINE
8
DEFAULT_255_1_234
10
24.2750886
20
-1.5348844
11
24.415644
21
-1.5348844
0
LINE
8
DEFAULT_255_1_234
10
24.4750789
20
-1.2545768
11
24.4357233
21
-1.2867037
0
ARC
8
DEFAULT_255_1_234
10
24.6525255
20
-1.447277
40
0.3681349
50
93.7182161
51
120.2538958
0
ARC
8
DEFAULT_255_1_234
10
24.6619518
20
-1.5280606
40
0.449379
50
89.9660152
51
94.2496022
0
ARC
8
DEFAULT_255_1_234
10
24.6660252
20
-1.4691451
40
0.390482
50
73.8043271
51
90.5585896
0
ARC
8
DEFAULT_255_1_234
10
24.6895149
20
-1.3833398
40
0.3015334
50
41.3071453
51
73.5430202
0
ARC
8
DEFAULT_255_1_234
10
24.6478976
20
-1.4191676
40
0.3564457
50
13.5075983
51
41.2174222
0
ARC
8
DEFAULT_255_1_234
10
24.483718
20
-1.4621514
40
0.5261351
50
1.1331335
51
13.8829381
0
ARC
8
DEFAULT_255_1_234
10
24.3425549
20
-1.4697335
40
0.6674378
50
359.9919444
51
1.544251
0
ARC
8
DEFAULT_255_1_234
10
24.4702375
20
-1.473872
40
0.5397702
50
347.8572367
51
0.4293338
0
ARC
8
DEFAULT_255_1_234
10
24.6452693
20
-1.5135264
40
0.3603188
50
323.673004
51
348.1672506
0
ARC
8
DEFAULT_255_1_234
10
24.6747201
20
-1.5314832
40
0.3259678
50
316.8171152
51
323.1492751
0
ARC
8
DEFAULT_255_1_234
10
24.680839
20
-1.535154
40
0.3189975
50
281.8396411
51
316.5457803
0
ARC
8
DEFAULT_255_1_234
10
24.6432654
20
-1.3796238
40
0.4789527
50
269.5770101
51
282.4214771
0
ARC
8
DEFAULT_255_1_234
10
24.6361465
20
-1.4009875
40
0.45759
50
256.2427136
51
270.4486331
0
ARC
8
DEFAULT_255_1_234
10
24.6062368
20
-1.5209771
40
0.3339303
50
228.9023911
51
256.3314342
0
ARC
8
DEFAULT_255_1_234
10
24.59886
20
-1.5326254
40
0.32031
50
193.753695
51
228.5271154
0
ARC
8
DEFAULT_255_1_234
10
24.7226554
20
-1.49632
40
0.4492253
50
184.924711
51
194.497588
0
ARC
8
DEFAULT_255_1_234
10
24.7419121
20
-1.4927409
40
0.3289787
50
187.3600538
51
198.6732863
0
ARC
8
DEFAULT_255_1_234
10
24.6369415
20
-1.5291326
40
0.217884
50
198.4451669
51
217.794479
0
ARC
8
DEFAULT_255_1_234
10
24.607359
20
-1.5500915
40
0.1816698
50
218.2887171
51
228.5612368
0
ARC
8
DEFAULT_255_1_234
10
24.6171377
20
-1.5369037
40
0.1980329
50
228.9654866
51
258.1234728
0
ARC
8
DEFAULT_255_1_234
10
24.6377087
20
-1.4488167
40
0.2884748
50
257.7258293
51
270.401361
0
ARC
8
DEFAULT_255_1_234
10
24.6421974
20
-1.4933179
40
0.2439788
50
269.4204404
51
286.4209037
0
ARC
8
DEFAULT_255_1_234
10
24.6570461
20
-1.5472343
40
0.1880666
50
286.7251356
51
320.600362
0
ARC
8
DEFAULT_255_1_234
10
24.6187286
20
-1.5161405
40
0.2374121
50
320.6712579
51
344.5441685
0
ARC
8
DEFAULT_255_1_234
10
24.5030612
20
-1.4821955
40
0.3579479
50
344.2412205
51
356.7357071
0
ARC
8
DEFAULT_255_1_234
10
24.3781761
20
-1.4718556
40
0.4832297
50
356.3548756
51
0.0500261
0
ARC
8
DEFAULT_255_1_234
10
24.511827
20
-1.468735
40
0.3495889
50
359.5576869
51
12.953486
0
ARC
8
DEFAULT_255_1_234
10
24.6173167
20
-1.4431566
40
0.2410532
50
12.6490276
51
41.6081334
0
ARC
8
DEFAULT_255_1_234
10
24.6403538
20
-1.4235679
40
0.2108218
50
41.7850273
51
85.9892764
0
ARC
8
DEFAULT_255_1_234
10
24.6280275
20
-1.5048538
40
0.2928454
50
84.6957577
51
90.0676183
0
ARC
8
DEFAULT_255_1_234
10
24.6256759
20
-1.5717284
40
0.3597255
50
89.6804936
51
99.1614436
0
ARC
8
DEFAULT_255_1_234
10
24.605139
20
-1.4489869
40
0.235281
50
98.9830931
51
113.8908934
0
ARC
8
DEFAULT_255_1_234
10
24.58218
20
-1.3948413
40
0.176479
50
114.1950727
51
127.3641004
0
LINE
8
DEFAULT_255_1_234
10
23.4386119
20
10.9295792
11
23.4386119
21
10.8083
0
LINE
8
DEFAULT_255_1_234
10
23.4386119
20
10.8083
11
22.672384
21
10.8083
0
LINE
8
DEFAULT_255_1_234
10
22.672384
20
10.8083
11
22.672384
21
10.9151221
0
LINE
8
DEFAULT_255_1_234
10
22.672384
20
10.9151221
11
23.0771836
21
11.3648995
0
LINE
8
DEFAULT_255_1_234
10
22.7984823
20
11.6331595
11
22.6498952
21
11.6331595
0
LINE
8
DEFAULT_255_1_234
10
23.1647296
20
11.2693218
11
22.8514918
21
10.9295792
0
LINE
8
DEFAULT_255_1_234
10
22.8514918
20
10.9295792
11
23.4386119
21
10.9295792
0
ARC
8
DEFAULT_255_1_234
10
21.728167
20
12.5578527
40
1.8008286
50
318.5132453
51
320.7828378
0
ARC
8
DEFAULT_255_1_234
10
22.2568644
20
12.1275426
40
1.1191493
50
320.7372736
51
323.9737074
0
ARC
8
DEFAULT_255_1_234
10
22.6488501
20
11.8435361
40
0.6350923
50
323.8961724
51
328.6421089
0
ARC
8
DEFAULT_255_1_234
10
22.8535096
20
11.7173031
40
0.3946393
50
328.8299013
51
331.789948
0
ARC
8
DEFAULT_255_1_234
10
22.9532274
20
11.6658509
40
0.2824501
50
331.4255242
51
352.9364833
0
ARC
8
DEFAULT_255_1_234
10
22.9668775
20
11.6627976
40
0.2685315
50
353.2248685
51
0.0169286
0
ARC
8
DEFAULT_255_1_234
10
22.9878652
20
11.665095
40
0.2475536
50
359.4866256
51
15.9339782
0
ARC
8
DEFAULT_255_1_234
10
23.0385637
20
11.6787286
40
0.1950618
50
16.1714718
51
43.5284424
0
ARC
8
DEFAULT_255_1_234
10
23.0462946
20
11.6864573
40
0.184134
50
43.4415429
51
83.1661404
0
ARC
8
DEFAULT_255_1_234
10
23.0328864
20
11.6127771
40
0.258926
50
82.160215
51
90.1505798
0
ARC
8
DEFAULT_255_1_234
10
23.0297291
20
11.5590865
40
0.3126255
50
89.5460705
51
102.5418777
0
ARC
8
DEFAULT_255_1_234
10
23.0054377
20
11.6621665
40
0.2067346
50
102.1739365
51
129.2061916
0
ARC
8
DEFAULT_255_1_234
10
22.9975449
20
11.6746094
40
0.1921118
50
129.7279328
51
135.7542026
0
ARC
8
DEFAULT_255_1_234
10
23.0096977
20
11.6649045
40
0.2075944
50
136.175737
51
166.3674722
0
ARC
8
DEFAULT_255_1_234
10
23.1103896
20
11.6379182
40
0.3118201
50
165.9092917
51
178.8683903
0
ARC
8
DEFAULT_255_1_234
10
23.1968757
20
11.6332179
40
0.3983935
50
178.438168
51
180.0083905
0
ARC
8
DEFAULT_255_1_234
10
23.0567359
20
11.6371231
40
0.4068601
50
163.2878735
51
180.5581814
0
ARC
8
DEFAULT_255_1_234
10
22.9765621
20
11.659184
40
0.3237344
50
133.454115
51
162.9470031
0
ARC
8
DEFAULT_255_1_234
10
22.9944162
20
11.6402
40
0.349795
50
100.7869394
51
133.4384016
0
ARC
8
DEFAULT_255_1_234
10
23.0291934
20
11.4853319
40
0.5084616
50
89.6605301
51
101.3704185
0
ARC
8
DEFAULT_255_1_234
10
23.0358273
20
11.4914496
40
0.502348
50
78.2171172
51
90.4130393
0
ARC
8
DEFAULT_255_1_234
10
23.0713351
20
11.6538637
40
0.3361092
50
55.9268222
51
78.4888551
0
ARC
8
DEFAULT_255_1_234
10
23.0909791
20
11.6877324
40
0.2970617
50
47.9292255
51
55.4054003
0
ARC
8
DEFAULT_255_1_234
10
23.1011352
20
11.6980502
40
0.2825983
50
4.3347696
51
48.0560701
0
ARC
8
DEFAULT_255_1_234
10
22.9915745
20
11.6810601
40
0.393225
50
359.925209
51
5.5967654
0
ARC
8
DEFAULT_255_1_234
10
23.0344637
20
11.6866816
40
0.3503892
50
337.8914096
51
358.9967724
0
ARC
8
DEFAULT_255_1_234
10
22.7631049
20
11.7913706
40
0.6412172
50
326.9135351
51
338.3505194
0
ARC
8
DEFAULT_255_1_234
10
22.3645353
20
12.0468284
40
1.1146189
50
319.6472867
51
327.095818
0
ARC
8
DEFAULT_255_1_234
10
21.9812356
20
12.363
40
1.6114559
50
317.2586784
51
319.9046139
0
LINE
8
DEFAULT_255_1_234
10
24.2233127
20
11.9777211
11
24.2233127
21
11.201052
0
LINE
8
DEFAULT_255_1_234
10
24.2233127
20
11.201052
11
24.3855538
21
11.201052
0
LINE
8
DEFAULT_255_1_234
10
24.3855538
20
11.201052
11
24.3855538
21
11.0797728
0
LINE
8
DEFAULT_255_1_234
10
24.3855538
20
11.0797728
11
24.2233127
21
11.0797728
0
LINE
8
DEFAULT_255_1_234
10
24.2233127
20
11.0797728
11
24.2233127
21
10.8083
0
LINE
8
DEFAULT_255_1_234
10
24.2233127
20
10.8083
11
24.0739224
21
10.8083
0
LINE
8
DEFAULT_255_1_234
10
24.0739224
20
10.8083
11
24.0739224
21
11.0797728
0
LINE
8
DEFAULT_255_1_234
10
24.0739224
20
11.0797728
11
23.5414181
21
11.0797728
0
LINE
8
DEFAULT_255_1_234
10
23.5414181
20
11.0797728
11
23.5414181
21
11.1673187
0
LINE
8
DEFAULT_255_1_234
10
23.5414181
20
11.1673187
11
24.0650875
21
11.9777211
0
LINE
8
DEFAULT_255_1_234
10
24.0650875
20
11.9777211
11
24.2233127
21
11.9777211
0
LINE
8
DEFAULT_255_1_234
10
24.0562525
20
11.7423912
11
23.7100846
21
11.201052
0
LINE
8
DEFAULT_255_1_234
10
23.7100846
20
11.201052
11
24.0739224
21
11.201052
0
LINE
8
DEFAULT_255_1_234
10
24.0739224
20
11.201052
11
24.0739224
21
11.7745181
0
LINE
8
DEFAULT_255_1_234
10
24.0739224
20
11.7745181
11
24.0562525
21
11.7423912
0
LINE
8
DEFAULT_255_1_234
10
25.0762833
20
11.9785243
11
25.102788
21
11.9785243
0
LINE
8
DEFAULT_255_1_234
10
25.102788
20
11.9785243
11
25.102788
21
11.852426
0
LINE
8
DEFAULT_255_1_234
10
25.102788
20
11.852426
11
25.0754801
21
11.852426
0
LINE
8
DEFAULT_255_1_234
10
24.5285187
20
11.2532583
11
24.5285187
21
11.3102836
0
LINE
8
DEFAULT_255_1_234
10
24.6779091
20
11.2910075
11
24.6779091
21
11.2363917
0
ARC
8
DEFAULT_255_1_234
10
25.0807149
20
11.3526455
40
0.4998079
50
90.6001036
51
104.514704
0
ARC
8
DEFAULT_255_1_234
10
25.0418665
20
11.4971131
40
0.3502176
50
104.2855254
51
133.862935
0
ARC
8
DEFAULT_255_1_234
10
25.0582422
20
11.486283
40
0.3693984
50
134.5302688
51
161.6210873
0
ARC
8
DEFAULT_255_1_234
10
25.2235611
20
11.4279895
40
0.5446739
50
161.2849839
51
174.2076652
0
ARC
8
DEFAULT_255_1_234
10
25.3642548
20
11.4085787
40
0.6866274
50
173.7810589
51
174.9254635
0
ARC
8
DEFAULT_255_1_234
10
24.909238
20
11.2702839
40
0.3033419
50
95.8330959
51
138.9954921
0
ARC
8
DEFAULT_255_1_234
10
24.9315736
20
11.1424375
40
0.4328947
50
89.8753725
51
97.0544009
0
ARC
8
DEFAULT_255_1_234
10
24.9363202
20
11.2259748
40
0.3493769
50
71.6407809
51
90.6240094
0
ARC
8
DEFAULT_255_1_234
10
24.9513775
20
11.2814082
40
0.2920396
50
39.6367836
51
71.019018
0
ARC
8
DEFAULT_255_1_234
10
24.8877248
20
11.2263998
40
0.3761538
50
10.658731
51
39.9043955
0
ARC
8
DEFAULT_255_1_234
10
24.7329331
20
11.1927686
40
0.5345136
50
359.682601
51
11.132623
0
ARC
8
DEFAULT_255_1_234
10
24.7289462
20
11.185701
40
0.5385081
50
347.2486944
51
0.4369317
0
ARC
8
DEFAULT_255_1_234
10
24.8956939
20
11.1455807
40
0.3670249
50
318.1409698
51
347.6118597
0
ARC
8
DEFAULT_255_1_234
10
24.9281932
20
11.1188702
40
0.3250007
50
275.6342139
51
317.8248465
0
ARC
8
DEFAULT_255_1_234
10
24.9061043
20
11.2488219
40
0.4565864
50
269.8874292
51
276.7917694
0
ARC
8
DEFAULT_255_1_234
10
24.9006114
20
11.1462743
40
0.3540676
50
246.9140195
51
270.7437342
0
ARC
8
DEFAULT_255_1_234
10
24.9012504
20
11.1320384
40
0.3412781
50
218.1665114
51
245.878116
0
ARC
8
DEFAULT_255_1_234
10
24.9891965
20
11.2056279
40
0.455911
50
191.4115814
51
218.6077802
0
ARC
8
DEFAULT_255_1_234
10
25.1830054
20
11.2490833
40
0.6545001
50
179.6345085
51
191.7836486
0
ARC
8
DEFAULT_255_1_234
10
25.7412391
20
11.3169697
40
1.2127388
50
171.4525249
51
180.3158839
0
ARC
8
DEFAULT_255_1_234
10
25.3017267
20
11.3853608
40
0.7679464
50
157.9802646
51
171.6246686
0
ARC
8
DEFAULT_255_1_234
10
25.0803288
20
11.4736421
40
0.5296008
50
141.4298019
51
157.854097
0
ARC
8
DEFAULT_255_1_234
10
25.0161608
20
11.5190381
40
0.4511509
50
102.8715806
51
140.8564722
0
ARC
8
DEFAULT_255_1_234
10
25.0809224
20
11.2750552
40
0.7034845
50
90.3778349
51
103.5869322
0
ARC
8
DEFAULT_255_1_234
10
24.9071
20
11.214573
40
0.2370698
50
89.8751008
51
126.2071704
0
ARC
8
DEFAULT_255_1_234
10
24.911679
20
11.1991303
40
0.2522934
50
124.9745049
51
144.895901
0
ARC
8
DEFAULT_255_1_234
10
24.894098
20
11.213456
40
0.2296779
50
145.2974905
51
160.2660252
0
ARC
8
DEFAULT_255_1_234
10
25.2013519
20
11.2332071
40
0.5234525
50
179.6514266
51
190.2855912
0
ARC
8
DEFAULT_255_1_234
10
25.0319656
20
11.2012786
40
0.3510893
50
190.0945431
51
207.5098196
0
ARC
8
DEFAULT_255_1_234
10
24.9753926
20
11.1743623
40
0.288489
50
207.9583163
51
216.3251085
0
ARC
8
DEFAULT_255_1_234
10
24.9414034
20
11.1464105
40
0.2445587
50
215.7661442
51
232.5456785
0
ARC
8
DEFAULT_255_1_234
10
24.9031017
20
11.0977482
40
0.1826382
50
232.8005391
51
270.6605633
0
ARC
8
DEFAULT_255_1_234
10
24.9076718
20
11.1341612
40
0.2190529
50
269.35537
51
288.4744281
0
ARC
8
DEFAULT_255_1_234
10
24.9169615
20
11.0992118
40
0.1829749
50
289.1833337
51
322.9683818
0
ARC
8
DEFAULT_255_1_234
10
24.8558137
20
11.1474391
40
0.2608399
50
322.6007884
51
346.5182367
0
ARC
8
DEFAULT_255_1_234
10
24.7400733
20
11.1769616
40
0.3802777
50
346.2582162
51
358.7741648
0
ARC
8
DEFAULT_255_1_234
10
24.6382402
20
11.1824965
40
0.4822176
50
358.3755224
51
0.0098023
0
ARC
8
DEFAULT_255_1_234
10
24.7138589
20
11.1852657
40
0.4066078
50
359.6214041
51
11.2839074
0
ARC
8
DEFAULT_255_1_234
10
24.8415736
20
11.2119066
40
0.2761514
50
11.0482309
51
31.8146458
0
ARC
8
DEFAULT_255_1_234
10
24.8724779
20
11.2286584
40
0.2410679
50
32.3035391
51
38.082671
0
ARC
8
DEFAULT_255_1_234
10
24.9145439
20
11.2667662
40
0.1844966
50
36.825067
51
85.7415724
0
ARC
8
DEFAULT_255_1_234
10
24.9078272
20
11.2167301
40
0.2349122
50
85.0140713
51
90.0513278
0
LINE
8
DEFAULT_255_1_234
10
26.1983171
20
11.9777211
11
26.1983171
21
11.894191
0
LINE
8
DEFAULT_255_1_234
10
26.1983171
20
11.894191
11
25.7140033
21
10.8083
0
LINE
8
DEFAULT_255_1_234
10
25.7140033
20
10.8083
11
25.5581876
21
10.8083
0
LINE
8
DEFAULT_255_1_234
10
25.5581876
20
10.8083
11
26.0408951
21
11.8556387
0
LINE
8
DEFAULT_255_1_234
10
26.0408951
20
11.8556387
11
25.4079941
21
11.8556387
0
LINE
8
DEFAULT_255_1_234
10
25.4079941
20
11.8556387
11
25.4079941
21
11.9777211
0
LINE
8
DEFAULT_255_1_234
10
25.4079941
20
11.9777211
11
26.1983171
21
11.9777211
0
LINE
8
DEFAULT_255_1_234
10
5.9768137
20
4.6253433
11
5.9768137
21
3.4503
0
LINE
8
DEFAULT_255_1_234
10
5.9768137
20
3.4503
11
5.8274234
21
3.4503
0
LINE
8
DEFAULT_255_1_234
10
5.8274234
20
3.4503
11
5.8274234
21
4.4406133
0
LINE
8
DEFAULT_255_1_234
10
5.8274234
20
4.4406133
11
5.5278396
21
4.3305785
0
LINE
8
DEFAULT_255_1_234
10
5.5278396
20
4.3305785
11
5.5278396
21
4.4655117
0
LINE
8
DEFAULT_255_1_234
10
5.5278396
20
4.4655117
11
5.9535217
21
4.6253433
0
LINE
8
DEFAULT_255_1_234
10
5.9535217
20
4.6253433
11
5.9768137
21
4.6253433
0
LINE
8
DEFAULT_255_1_234
10
7.0394127
20
4.6197211
11
7.0394127
21
3.843052
0
LINE
8
DEFAULT_255_1_234
10
7.0394127
20
3.843052
11
7.2016538
21
3.843052
0
LINE
8
DEFAULT_255_1_234
10
7.2016538
20
3.843052
11
7.2016538
21
3.7217728
0
LINE
8
DEFAULT_255_1_234
10
7.2016538
20
3.7217728
11
7.0394127
21
3.7217728
0
LINE
8
DEFAULT_255_1_234
10
7.0394127
20
3.7217728
11
7.0394127
21
3.4503
0
LINE
8
DEFAULT_255_1_234
10
7.0394127
20
3.4503
11
6.8900224
21
3.4503
0
LINE
8
DEFAULT_255_1_234
10
6.8900224
20
3.4503
11
6.8900224
21
3.7217728
0
LINE
8
DEFAULT_255_1_234
10
6.8900224
20
3.7217728
11
6.3575181
21
3.7217728
0
LINE
8
DEFAULT_255_1_234
10
6.3575181
20
3.7217728
11
6.3575181
21
3.8093187
0
LINE
8
DEFAULT_255_1_234
10
6.3575181
20
3.8093187
11
6.8811875
21
4.6197211
0
LINE
8
DEFAULT_255_1_234
10
6.8811875
20
4.6197211
11
7.0394127
21
4.6197211
0
LINE
8
DEFAULT_255_1_234
10
6.8723525
20
4.3843912
11
6.5261846
21
3.843052
0
LINE
8
DEFAULT_255_1_234
10
6.5261846
20
3.843052
11
6.8900224
21
3.843052
0
LINE
8
DEFAULT_255_1_234
10
6.8900224
20
3.843052
11
6.8900224
21
4.4165181
0
LINE
8
DEFAULT_255_1_234
10
6.8900224
20
4.4165181
11
6.8723525
21
4.3843912
0
ENDSEC
0
EOF