0
SECTION
2
HEADER
9
$MEASUREMENT
70
1
0
ENDSEC
0
SECTION
2
TABLES
0
TABLE
2
LTYPE
0
LTYPE
72
65
70
64
2
CONTINUOUS
3
______
73
0
40
0
0
ENDTAB
0
TABLE
2
LAYER
0
LAYER
2
DEFAULT_255_2_778
70
0
62
255
6
CONTINUOUS
0
LAYER
2
DEFAULT_255_1_234
70
0
62
255
6
CONTINUOUS
0
ENDTAB
0
ENDSEC
0
SECTION
2
ENTITIES
0
LINE
8
DEFAULT_255_2_778
10
7.0783503
20
10.4510499
11
30.8908503
21
10.4510499
0
LINE
8
DEFAULT_255_2_778
10
30.8908503
20
10.4510499
11
30.8908503
21
2.5135499
0
LINE
8
DEFAULT_255_2_778
10
30.8908503
20
2.5135499
11
7.0783503
21
2.5135499
0
LINE
8
DEFAULT_255_2_778
10
7.0783503
20
2.5135499
11
7.0783503
21
10.4510499
0
LINE
8
DEFAULT_255_2_778
10
15.0148501
20
10.4510499
11
15.0148501
21
2.5135499
0
LINE
8
DEFAULT_255_2_778
10
22.9523501
20
10.4510499
11
22.9523501
21
2.5135499
0
LINE
8
DEFAULT_255_2_778
10
9.7232417
20
2.5135499
11
9.7232417
21
10.4510499
0
LINE
8
DEFAULT_255_2_778
10
9.7232417
20
10.4510499
11
9.0617417
21
8.4666499
0
LINE
8
DEFAULT_255_2_778
10
9.0617417
20
8.4666499
11
10.3846417
21
8.4666499
0
LINE
8
DEFAULT_255_2_778
10
10.3846417
20
8.4666499
11
9.7232417
21
10.4510499
0
LINE
8
DEFAULT_255_2_778
10
12.369
20
2.5135499
11
12.369
21
10.4510499
0
LINE
8
DEFAULT_255_2_778
10
11.7075711
20
4.4979499
11
13.0304711
21
4.4979499
0
LINE
8
DEFAULT_255_2_778
10
13.0304711
20
4.4979499
11
12.3690711
21
2.5135499
0
LINE
8
DEFAULT_255_2_778
10
12.3690711
20
2.5135499
11
11.7075711
21
4.4979499
0
LINE
8
DEFAULT_255_2_778
10
25.5981711
20
10.4510499
11
28.2440711
21
2.5135499
0
LINE
8
DEFAULT_255_2_778
10
28.2440711
20
2.5135499
11
28.2440711
21
4.6302499
0
LINE
8
DEFAULT_255_2_778
10
28.2440711
20
4.6302499
11
26.9210711
21
4.1010499
0
LINE
8
DEFAULT_255_2_778
10
26.9210711
20
4.1010499
11
28.2440711
21
2.5135499
0
LINE
8
DEFAULT_255_2_778
10
25.5981834
20
2.5135499
11
28.2439834
21
10.4510499
0
LINE
8
DEFAULT_255_2_778
10
28.2439834
20
10.4510499
11
28.2439834
21
8.3343499
0
LINE
8
DEFAULT_255_2_778
10
28.2439834
20
8.3343499
11
27.0533834
21
8.8635499
0
LINE
8
DEFAULT_255_2_778
10
27.0533834
20
8.8635499
11
28.2439834
21
10.4510499
0
LINE
8
DEFAULT_255_2_778
10
7.0772834
20
3.30725
11
4.4314834
21
3.30725
0
LINE
8
DEFAULT_255_2_778
10
7.0772834
20
4.89475
11
4.4314834
21
4.89475
0
LINE
8
DEFAULT_255_2_778
10
4.4315
20
2.5135166
11
4.4315
21
5.1593166
0
ARC
8
DEFAULT_255_2_778
10
4.4300557
20
5.8222443
40
0.6600157
50
89.871003
51
180.128997
0
ARC
8
DEFAULT_255_2_778
10
4.432949
20
5.8222655
40
0.6599943
50
359.8691577
51
90.1221758
0
ARC
8
DEFAULT_255_2_778
10
4.4329705
20
5.8193295
40
0.6599728
50
269.8759594
51
0.1240406
0
ARC
8
DEFAULT_255_2_778
10
4.4300345
20
5.8193508
40
0.6599942
50
179.8778094
51
270.1308423
0
LINE
8
DEFAULT_255_2_778
10
3.7700417
20
5.8207583
11
3.7700417
21
5.8207583
0
LINE
8
DEFAULT_255_2_778
10
16.9992417
20
7.8052
11
18.3221417
21
7.8052
0
LINE
8
DEFAULT_255_2_778
10
17.6606542
20
7.8052164
11
17.6606542
21
15.7427164
0
LINE
8
DEFAULT_255_2_778
10
17.6606542
20
5.1594164
11
17.6606542
21
-2.7780836
0
LINE
8
DEFAULT_255_2_778
10
19.6450542
20
7.8052164
11
20.9679542
21
7.8052164
0
LINE
8
DEFAULT_255_2_778
10
20.3064834
20
7.8052164
11
20.3064834
21
15.7427164
0
LINE
8
DEFAULT_255_2_778
10
20.3064834
20
5.1594164
11
20.3064834
21
-2.7780836
0
LINE
8
DEFAULT_255_2_778
10
17.0002834
20
5.1594164
11
18.3231834
21
5.1594164
0
LINE
8
DEFAULT_255_2_778
10
19.6461525
20
5.1593333
11
20.9690525
21
5.1593333
0
LINE
8
DEFAULT_255_2_778
10
4.4315525
20
8.8635333
11
4.7255525
21
10.4510333
0
LINE
8
DEFAULT_255_2_778
10
4.7255525
20
10.4510333
11
5.1665525
21
7.8052333
0
LINE
8
DEFAULT_255_2_778
10
5.1665525
20
7.8052333
11
5.6076525
21
10.4510333
0
LINE
8
DEFAULT_255_2_778
10
5.6076525
20
10.4510333
11
6.0486525
21
7.8052333
0
LINE
8
DEFAULT_255_2_778
10
6.0486525
20
7.8052333
11
6.4897525
21
10.4510333
0
LINE
8
DEFAULT_255_2_778
10
6.4897525
20
10.4510333
11
6.9308525
21
7.8052333
0
LINE
8
DEFAULT_255_2_778
10
6.9308525
20
7.8052333
11
7.0773525
21
8.8635333
0
LINE
8
DEFAULT_255_2_778
10
30.8898525
20
8.8635333
11
31.1838525
21
10.4510333
0
LINE
8
DEFAULT_255_2_778
10
31.1838525
20
10.4510333
11
31.6248525
21
7.8052333
0
LINE
8
DEFAULT_255_2_778
10
31.6248525
20
7.8052333
11
32.0659525
21
10.4510333
0
LINE
8
DEFAULT_255_2_778
10
32.0659525
20
10.4510333
11
32.5070525
21
7.8052333
0
LINE
8
DEFAULT_255_2_778
10
32.5070525
20
7.8052333
11
32.9480525
21
10.4510333
0
LINE
8
DEFAULT_255_2_778
10
32.9480525
20
10.4510333
11
33.3891525
21
7.8052333
0
LINE
8
DEFAULT_255_2_778
10
33.3891525
20
7.8052333
11
33.5362525
21
8.8635333
0
LINE
8
DEFAULT_255_1_234
10
15.2140137
20
-0.6674567
11
15.2140137
21
-1.8425
0
LINE
8
DEFAULT_255_1_234
10
15.2140137
20
-1.8425
11
15.0646234
21
-1.8425
0
LINE
8
DEFAULT_255_1_234
10
15.0646234
20
-1.8425
11
15.0646234
21
-0.8521867
0
LINE
8
DEFAULT_255_1_234
10
15.0646234
20
-0.8521867
11
14.7650396
21
-0.9622215
0
LINE
8
DEFAULT_255_1_234
10
14.7650396
20
-0.9622215
11
14.7650396
21
-0.8272883
0
LINE
8
DEFAULT_255_1_234
10
14.7650396
20
-0.8272883
11
15.1907217
21
-0.6674567
0
LINE
8
DEFAULT_255_1_234
10
15.1907217
20
-0.6674567
11
15.2140137
21
-0.6674567
0
LINE
8
DEFAULT_255_1_234
10
15.8653877
20
-1.3067831
11
15.8653877
21
-1.1855038
0
LINE
8
DEFAULT_255_1_234
10
15.8653877
20
-1.1855038
11
15.9770289
21
-1.1855038
0
LINE
8
DEFAULT_255_1_234
10
15.7866767
20
-0.9798913
11
15.6380895
21
-0.9798913
0
LINE
8
DEFAULT_255_1_234
10
15.6276482
20
-1.5340812
11
15.7770386
21
-1.5340812
0
LINE
8
DEFAULT_255_1_234
10
15.9770289
20
-1.3067831
11
15.8653877
21
-1.3067831
0
ARC
8
DEFAULT_255_1_234
10
15.9741155
20
-0.8462287
40
0.3392876
50
270.4919872
51
281.8951556
0
ARC
8
DEFAULT_255_1_234
10
15.9982417
20
-0.9564298
40
0.2264817
50
281.6691735
51
301.2943132
0
ARC
8
DEFAULT_255_1_234
10
16.0152627
20
-0.9875696
40
0.1910381
50
301.7833094
51
311.7545298
0
ARC
8
DEFAULT_255_1_234
10
16.0244203
20
-0.9977252
40
0.1773635
50
311.7323931
51
354.2802411
0
ARC
8
DEFAULT_255_1_234
10
15.9517828
20
-0.9852278
40
0.2509385
50
353.0937916
51
0.1181479
0
ARC
8
DEFAULT_255_1_234
10
15.9056613
20
-0.9804614
40
0.2970898
50
359.1805295
51
15.0453146
0
ARC
8
DEFAULT_255_1_234
10
16.040245
20
-0.9412008
40
0.1569564
50
13.9577229
51
77.6713066
0
ARC
8
DEFAULT_255_1_234
10
16.0015979
20
-1.0797051
40
0.3006298
50
76.1116566
51
90.7026153
0
ARC
8
DEFAULT_255_1_234
10
15.9956817
20
-1.0523455
40
0.2732568
50
89.5324876
51
103.531937
0
ARC
8
DEFAULT_255_1_234
10
15.9756261
20
-0.9724116
40
0.1908508
50
103.2931773
51
133.5619022
0
ARC
8
DEFAULT_255_1_234
10
15.971175
20
-0.9664625
40
0.1834746
50
133.8349307
51
173.5344437
0
ARC
8
DEFAULT_255_1_234
10
16.0434793
20
-0.9792787
40
0.2568033
50
172.5096846
51
180.1366907
0
ARC
8
DEFAULT_255_1_234
10
15.9483687
20
-0.9758378
40
0.3103056
50
155.3484492
51
180.7484736
0
ARC
8
DEFAULT_255_1_234
10
15.9434776
20
-0.9787154
40
0.3070957
50
131.5744599
51
154.4798489
0
ARC
8
DEFAULT_255_1_234
10
15.9747923
20
-1.010369
40
0.3515643
50
96.9875458
51
131.9690667
0
ARC
8
DEFAULT_255_1_234
10
15.9967403
20
-1.1349364
40
0.4779224
50
89.8596053
51
97.7825159
0
ARC
8
DEFAULT_255_1_234
10
16.0015466
20
-1.1611384
40
0.5041361
50
78.3655447
51
90.4131539
0
ARC
8
DEFAULT_255_1_234
10
16.0373384
20
-0.9952113
40
0.3344039
50
56.6229102
51
78.638727
0
ARC
8
DEFAULT_255_1_234
10
16.0588328
20
-0.9576195
40
0.2912001
50
47.0253525
51
56.0854072
0
ARC
8
DEFAULT_255_1_234
10
16.0608108
20
-0.9536777
40
0.2869704
50
10.9208013
51
46.7778124
0
ARC
8
DEFAULT_255_1_234
10
15.9244174
20
-0.9852143
40
0.426899
50
359.6364486
51
11.6087304
0
ARC
8
DEFAULT_255_1_234
10
16.1079018
20
-0.9867248
40
0.243409
50
332.3549906
51
359.7179418
0
ARC
8
DEFAULT_255_1_234
10
16.042862
20
-0.9558858
40
0.3153459
50
325.2333722
51
332.8745602
0
ARC
8
DEFAULT_255_1_234
10
16.0581244
20
-0.9665172
40
0.2967456
50
292.9802137
51
325.2392345
0
ARC
8
DEFAULT_255_1_234
10
16.0306617
20
-0.9131137
40
0.3566604
50
292.5402179
51
293.6924929
0
ARC
8
DEFAULT_255_1_234
10
16.0699213
20
-1.5585909
40
0.3307468
50
57.6435486
51
72.8625112
0
ARC
8
DEFAULT_255_1_234
10
16.1053713
20
-1.5011451
40
0.2632492
50
36.7248896
51
57.4697979
0
ARC
8
DEFAULT_255_1_234
10
16.1042346
20
-1.499878
40
0.2634081
50
8.0545065
51
36.356114
0
ARC
8
DEFAULT_255_1_234
10
16.0179531
20
-1.5153826
40
0.3510261
50
359.8320645
51
8.5869982
0
ARC
8
DEFAULT_255_1_234
10
15.9804307
20
-1.5201899
40
0.3885653
50
343.9829931
51
0.5571613
0
ARC
8
DEFAULT_255_1_234
10
16.0690504
20
-1.5444562
40
0.2966924
50
311.6359546
51
343.7651759
0
ARC
8
DEFAULT_255_1_234
10
16.0312074
20
-1.5017898
40
0.3537231
50
279.7829875
51
311.6255694
0
ARC
8
DEFAULT_255_1_234
10
16.001085
20
-1.358072
40
0.5004971
50
269.7286406
51
280.3856417
0
ARC
8
DEFAULT_255_1_234
10
15.9948922
20
-1.3622004
40
0.4963778
50
256.6828919
51
270.4412052
0
ARC
8
DEFAULT_255_1_234
10
15.9610218
20
-1.5006606
40
0.3538406
50
229.4223008
51
256.8556159
0
ARC
8
DEFAULT_255_1_234
10
15.9195611
20
-1.5473264
40
0.2914296
50
181.818294
51
229.6455059
0
ARC
8
DEFAULT_255_1_234
10
16.0235567
20
-1.5342504
40
0.3959084
50
179.9755256
51
183.2323064
0
ARC
8
DEFAULT_255_1_234
10
16.0063313
20
-1.5362963
40
0.2293034
50
179.4465117
51
196.2869258
0
ARC
8
DEFAULT_255_1_234
10
15.9575721
20
-1.5496349
40
0.1787621
50
196.5661473
51
227.705904
0
ARC
8
DEFAULT_255_1_234
10
15.9739816
20
-1.5312845
40
0.2033784
50
227.7652068
51
257.8762805
0
ARC
8
DEFAULT_255_1_234
10
15.9964786
20
-1.4369844
40
0.3003081
50
257.4584385
51
270.426602
0
ARC
8
DEFAULT_255_1_234
10
16.0010352
20
-1.4080004
40
0.329292
50
269.5962073
51
280.8789248
0
ARC
8
DEFAULT_255_1_234
10
16.0239881
20
-1.5226315
40
0.2123908
50
280.6346389
51
299.8595945
0
ARC
8
DEFAULT_255_1_234
10
16.0430788
20
-1.5588788
40
0.171457
50
300.3576302
51
314.5517981
0
ARC
8
DEFAULT_255_1_234
10
16.0347848
20
-1.5528081
40
0.1816095
50
315.0728369
51
345.0431014
0
ARC
8
DEFAULT_255_1_234
10
15.9424662
20
-1.5259159
40
0.2777492
50
344.5986631
51
357.9269593
0
ARC
8
DEFAULT_255_1_234
10
15.8528989
20
-1.5197724
40
0.3674917
50
357.4748886
51
0.0231117
0
ARC
8
DEFAULT_255_1_234
10
15.9552098
20
-1.5173321
40
0.2651907
50
359.5047933
51
13.4239635
0
ARC
8
DEFAULT_255_1_234
10
16.0418741
20
-1.4951522
40
0.1757509
50
12.9498199
51
48.7551375
0
ARC
8
DEFAULT_255_1_234
10
16.0236475
20
-1.52006
40
0.2065134
50
49.5088623
51
72.1836453
0
ARC
8
DEFAULT_255_1_234
10
15.9878628
20
-1.6262709
40
0.3185836
50
71.9010081
51
84.3554254
0
ARC
8
DEFAULT_255_1_234
10
15.971726
20
-1.7623674
40
0.4556151
50
84.0193428
51
89.333121
0
LINE
8
DEFAULT_255_1_234
10
15.6952119
20
13.5753792
11
15.6952119
21
13.4541
0
LINE
8
DEFAULT_255_1_234
10
15.6952119
20
13.4541
11
14.928984
21
13.4541
0
LINE
8
DEFAULT_255_1_234
10
14.928984
20
13.4541
11
14.928984
21
13.5609221
0
LINE
8
DEFAULT_255_1_234
10
14.928984
20
13.5609221
11
15.3337836
21
14.0106995
0
LINE
8
DEFAULT_255_1_234
10
15.0550823
20
14.2789595
11
14.9064952
21
14.2789595
0
LINE
8
DEFAULT_255_1_234
10
15.4213296
20
13.9151218
11
15.1080918
21
13.5753792
0
LINE
8
DEFAULT_255_1_234
10
15.1080918
20
13.5753792
11
15.6952119
21
13.5753792
0
ARC
8
DEFAULT_255_1_234
10
13.984767
20
15.2036527
40
1.8008286
50
318.5132453
51
320.7828378
0
ARC
8
DEFAULT_255_1_234
10
14.5134644
20
14.7733426
40
1.1191493
50
320.7372736
51
323.9737074
0
ARC
8
DEFAULT_255_1_234
10
14.9054501
20
14.4893361
40
0.6350923
50
323.8961724
51
328.6421089
0
ARC
8
DEFAULT_255_1_234
10
15.1101096
20
14.3631031
40
0.3946393
50
328.8299013
51
331.789948
0
ARC
8
DEFAULT_255_1_234
10
15.2098274
20
14.3116509
40
0.2824501
50
331.4255242
51
352.9364833
0
ARC
8
DEFAULT_255_1_234
10
15.2234775
20
14.3085976
40
0.2685315
50
353.2248685
51
0.0169286
0
ARC
8
DEFAULT_255_1_234
10
15.2444652
20
14.310895
40
0.2475536
50
359.4866256
51
15.9339782
0
ARC
8
DEFAULT_255_1_234
10
15.2951637
20
14.3245286
40
0.1950618
50
16.1714718
51
43.5284424
0
ARC
8
DEFAULT_255_1_234
10
15.3028946
20
14.3322573
40
0.184134
50
43.4415429
51
83.1661404
0
ARC
8
DEFAULT_255_1_234
10
15.2894864
20
14.2585771
40
0.258926
50
82.160215
51
90.1505798
0
ARC
8
DEFAULT_255_1_234
10
15.2863291
20
14.2048865
40
0.3126255
50
89.5460705
51
102.5418777
0
ARC
8
DEFAULT_255_1_234
10
15.2620377
20
14.3079665
40
0.2067346
50
102.1739365
51
129.2061916
0
ARC
8
DEFAULT_255_1_234
10
15.2541449
20
14.3204094
40
0.1921118
50
129.7279328
51
135.7542026
0
ARC
8
DEFAULT_255_1_234
10
15.2662977
20
14.3107045
40
0.2075944
50
136.175737
51
166.3674722
0
ARC
8
DEFAULT_255_1_234
10
15.3669896
20
14.2837182
40
0.3118201
50
165.9092917
51
178.8683903
0
ARC
8
DEFAULT_255_1_234
10
15.4534757
20
14.2790179
40
0.3983935
50
178.438168
51
180.0083905
0
ARC
8
DEFAULT_255_1_234
10
15.3133359
20
14.2829231
40
0.4068601
50
163.2878735
51
180.5581814
0
ARC
8
DEFAULT_255_1_234
10
15.2331621
20
14.304984
40
0.3237344
50
133.454115
51
162.9470031
0
ARC
8
DEFAULT_255_1_234
10
15.2510162
20
14.286
40
0.349795
50
100.7869394
51
133.4384016
0
ARC
8
DEFAULT_255_1_234
10
15.2857934
20
14.1311319
40
0.5084616
50
89.6605301
51
101.3704185
0
ARC
8
DEFAULT_255_1_234
10
15.2924273
20
14.1372496
40
0.502348
50
78.2171172
51
90.4130393
0
ARC
8
DEFAULT_255_1_234
10
15.3279351
20
14.2996637
40
0.3361092
50
55.9268222
51
78.4888551
0
ARC
8
DEFAULT_255_1_234
10
15.3475791
20
14.3335324
40
0.2970617
50
47.9292255
51
55.4054003
0
ARC
8
DEFAULT_255_1_234
10
15.3577352
20
14.3438502
40
0.2825983
50
4.3347696
51
48.0560701
0
ARC
8
DEFAULT_255_1_234
10
15.2481745
20
14.3268601
40
0.393225
50
359.925209
51
5.5967654
0
ARC
8
DEFAULT_255_1_234
10
15.2910637
20
14.3324816
40
0.3503892
50
337.8914096
51
358.9967724
0
ARC
8
DEFAULT_255_1_234
10
15.0197049
20
14.4371706
40
0.6412172
50
326.9135351
51
338.3505194
0
ARC
8
DEFAULT_255_1_234
10
14.6211353
20
14.6926284
40
1.1146189
50
319.6472867
51
327.095818
0
ARC
8
DEFAULT_255_1_234
10
14.2378356
20
15.0088
40
1.6114559
50
317.2586784
51
319.9046139
0
LINE
8
DEFAULT_255_1_234
10
16.4799127
20
14.6235211
11
16.4799127
21
13.846852
0
LINE
8
DEFAULT_255_1_234
10
16.4799127
20
13.846852
11
16.6421538
21
13.846852
0
LINE
8
DEFAULT_255_1_234
10
16.6421538
20
13.846852
11
16.6421538
21
13.7255728
0
LINE
8
DEFAULT_255_1_234
10
16.6421538
20
13.7255728
11
16.4799127
21
13.7255728
0
LINE
8
DEFAULT_255_1_234
10
16.4799127
20
13.7255728
11
16.4799127
21
13.4541
0
LINE
8
DEFAULT_255_1_234
10
16.4799127
20
13.4541
11
16.3305224
21
13.4541
0
LINE
8
DEFAULT_255_1_234
10
16.3305224
20
13.4541
11
16.3305224
21
13.7255728
0
LINE
8
DEFAULT_255_1_234
10
16.3305224
20
13.7255728
11
15.7980181
21
13.7255728
0
LINE
8
DEFAULT_255_1_234
10
15.7980181
20
13.7255728
11
15.7980181
21
13.8131187
0
LINE
8
DEFAULT_255_1_234
10
15.7980181
20
13.8131187
11
16.3216875
21
14.6235211
0
LINE
8
DEFAULT_255_1_234
10
16.3216875
20
14.6235211
11
16.4799127
21
14.6235211
0
LINE
8
DEFAULT_255_1_234
10
16.3128525
20
14.3881912
11
15.9666846
21
13.846852
0
LINE
8
DEFAULT_255_1_234
10
15.9666846
20
13.846852
11
16.3305224
21
13.846852
0
LINE
8
DEFAULT_255_1_234
10
16.3305224
20
13.846852
11
16.3305224
21
14.4203181
0
LINE
8
DEFAULT_255_1_234
10
16.3305224
20
14.4203181
11
16.3128525
21
14.3881912
0
ENDSEC
0
EOF