0
SECTION
2
HEADER
9
$MEASUREMENT
70
1
0
ENDSEC
0
SECTION
2
TABLES
0
TABLE
2
LTYPE
0
LTYPE
72
65
70
64
2
CONTINUOUS
3
______
73
0
40
0
0
ENDTAB
0
TABLE
2
LAYER
0
LAYER
2
DEFAULT_255_2_778
70
0
62
255
6
CONTINUOUS
0
LAYER
2
DEFAULT_255_1_234
70
0
62
255
6
CONTINUOUS
0
ENDTAB
0
ENDSEC
0
SECTION
2
ENTITIES
0
LINE
8
DEFAULT_255_2_778
10
11.2363503
20
10.4510499
11
35.0488503
21
10.4510499
0
LINE
8
DEFAULT_255_2_778
10
35.0488503
20
10.4510499
11
35.0488503
21
2.5135499
0
LINE
8
DEFAULT_255_2_778
10
35.0488503
20
2.5135499
11
11.2363503
21
2.5135499
0
LINE
8
DEFAULT_255_2_778
10
11.2363503
20
2.5135499
11
11.2363503
21
10.4510499
0
LINE
8
DEFAULT_255_2_778
10
19.1738501
20
10.4510499
11
19.1738501
21
2.5135499
0
LINE
8
DEFAULT_255_2_778
10
27.1113501
20
10.4510499
11
27.1113501
21
2.5135499
0
LINE
8
DEFAULT_255_2_778
10
29.7572417
20
2.5135499
11
29.7572417
21
10.4510499
0
LINE
8
DEFAULT_255_2_778
10
29.7572417
20
10.4510499
11
29.0957417
21
8.4666499
0
LINE
8
DEFAULT_255_2_778
10
29.0957417
20
8.4666499
11
30.4186417
21
8.4666499
0
LINE
8
DEFAULT_255_2_778
10
30.4186417
20
8.4666499
11
29.7572417
21
10.4510499
0
LINE
8
DEFAULT_255_2_778
10
32.403
20
2.5135499
11
32.403
21
10.4510499
0
LINE
8
DEFAULT_255_2_778
10
31.7415417
20
4.4978875
11
33.0644417
21
4.4978875
0
LINE
8
DEFAULT_255_2_778
10
33.0644417
20
4.4978875
11
32.4030417
21
2.5134875
0
LINE
8
DEFAULT_255_2_778
10
32.4030417
20
2.5134875
11
31.7415417
21
4.4978875
0
LINE
8
DEFAULT_255_2_778
10
24.4654834
20
15.7427164
11
24.4654834
21
-2.7780836
0
LINE
8
DEFAULT_255_2_778
10
21.8196834
20
-2.7780836
11
21.8196834
21
5.1594164
0
LINE
8
DEFAULT_255_2_778
10
21.1582542
20
5.1593665
11
22.4811542
21
5.1593665
0
LINE
8
DEFAULT_255_2_778
10
21.8197542
20
15.7426665
11
21.8197542
21
6.4822665
0
LINE
8
DEFAULT_255_2_778
10
21.8197542
20
6.4822665
11
24.4655542
21
6.4822665
0
ARC
8
DEFAULT_255_2_778
10
24.4640557
20
6.4837443
40
0.6600157
50
89.871003
51
180.128997
0
ARC
8
DEFAULT_255_2_778
10
24.466949
20
6.4837655
40
0.6599943
50
359.8691577
51
90.1221758
0
ARC
8
DEFAULT_255_2_778
10
24.4669705
20
6.4808295
40
0.6599728
50
269.8759594
51
0.1240406
0
ARC
8
DEFAULT_255_2_778
10
24.4640345
20
6.4808508
40
0.6599942
50
179.8778094
51
270.1308423
0
LINE
8
DEFAULT_255_2_778
10
23.8040417
20
6.4822583
11
23.8040417
21
6.4822583
0
LINE
8
DEFAULT_255_2_778
10
16.5279834
20
10.4509749
11
16.5279834
21
6.4822749
0
LINE
8
DEFAULT_255_2_778
10
16.5279834
20
6.4822749
11
13.8821834
21
6.4822749
0
LINE
8
DEFAULT_255_2_778
10
13.8822
20
10.4510499
11
13.8822
21
2.5135499
0
ARC
8
DEFAULT_255_2_778
10
13.8807557
20
6.4837443
40
0.6600157
50
89.871003
51
180.128997
0
ARC
8
DEFAULT_255_2_778
10
13.883649
20
6.4837655
40
0.6599943
50
359.8691577
51
90.1221758
0
ARC
8
DEFAULT_255_2_778
10
13.8836705
20
6.4808295
40
0.6599728
50
269.8759594
51
0.1240406
0
ARC
8
DEFAULT_255_2_778
10
13.8807345
20
6.4808508
40
0.6599942
50
179.8778094
51
270.1308423
0
LINE
8
DEFAULT_255_2_778
10
13.2207417
20
6.4822583
11
13.2207417
21
6.4822583
0
LINE
8
DEFAULT_255_2_778
10
16.528
20
2.5135166
11
16.528
21
5.1593166
0
LINE
8
DEFAULT_255_2_778
10
17.1894506
20
5.1593333
11
15.8665506
21
5.1593333
0
LINE
8
DEFAULT_255_2_778
10
37.6946506
20
5.1593333
11
42.9863506
21
5.1593333
0
LINE
8
DEFAULT_255_2_778
10
42.9863506
20
5.1593333
11
42.9863506
21
-0.1323667
0
LINE
8
DEFAULT_255_2_778
10
8.5905506
20
5.1593333
11
3.2988506
21
5.1593333
0
LINE
8
DEFAULT_255_2_778
10
3.2988506
20
5.1593333
11
3.2988506
21
-0.1323667
0
LINE
8
DEFAULT_255_2_778
10
8.5905417
20
6.4822166
11
8.5905417
21
3.8364166
0
LINE
8
DEFAULT_255_2_778
10
8.5905417
20
3.8364166
11
9.9134417
21
5.1593166
0
LINE
8
DEFAULT_255_2_778
10
9.9134417
20
5.1593166
11
8.5905417
21
6.4822166
0
LINE
8
DEFAULT_255_2_778
10
11.2363417
20
5.1593
11
9.9134417
21
5.1593
0
LINE
8
DEFAULT_255_2_778
10
37.6947417
20
6.4822166
11
37.6947417
21
3.8364166
0
LINE
8
DEFAULT_255_2_778
10
37.6947417
20
3.8364166
11
36.3718417
21
5.1593166
0
LINE
8
DEFAULT_255_2_778
10
36.3718417
20
5.1593166
11
37.6947417
21
6.4822166
0
LINE
8
DEFAULT_255_2_778
10
35.0488525
20
5.1593333
11
36.3717525
21
5.1593333
0
LINE
8
DEFAULT_255_2_778
10
35.0488525
20
8.8635333
11
35.3428525
21
10.4510333
0
LINE
8
DEFAULT_255_2_778
10
35.3428525
20
10.4510333
11
35.7838525
21
7.8052333
0
LINE
8
DEFAULT_255_2_778
10
35.7838525
20
7.8052333
11
36.2249525
21
10.4510333
0
LINE
8
DEFAULT_255_2_778
10
36.2249525
20
10.4510333
11
36.6660525
21
7.8052333
0
LINE
8
DEFAULT_255_2_778
10
36.6660525
20
7.8052333
11
37.1070525
21
10.4510333
0
LINE
8
DEFAULT_255_2_778
10
37.1070525
20
10.4510333
11
37.5481525
21
7.8052333
0
LINE
8
DEFAULT_255_2_778
10
37.5481525
20
7.8052333
11
37.6952525
21
8.8635333
0
LINE
8
DEFAULT_255_2_778
10
11.2363525
20
8.8635333
11
10.9424525
21
10.4510333
0
LINE
8
DEFAULT_255_2_778
10
10.9424525
20
10.4510333
11
10.5013525
21
7.8052333
0
LINE
8
DEFAULT_255_2_778
10
10.5013525
20
7.8052333
11
10.0603525
21
10.4510333
0
LINE
8
DEFAULT_255_2_778
10
10.0603525
20
10.4510333
11
9.6192525
21
7.8052333
0
LINE
8
DEFAULT_255_2_778
10
9.6192525
20
7.8052333
11
9.1781525
21
10.4510333
0
LINE
8
DEFAULT_255_2_778
10
9.1781525
20
10.4510333
11
8.7371525
21
7.8052333
0
LINE
8
DEFAULT_255_2_778
10
8.7371525
20
7.8052333
11
8.5905525
21
8.8635333
0
LINE
8
DEFAULT_255_1_234
10
19.3742137
20
-0.6674567
11
19.3742137
21
-1.8425
0
LINE
8
DEFAULT_255_1_234
10
19.3742137
20
-1.8425
11
19.2248234
21
-1.8425
0
LINE
8
DEFAULT_255_1_234
10
19.2248234
20
-1.8425
11
19.2248234
21
-0.8521867
0
LINE
8
DEFAULT_255_1_234
10
19.2248234
20
-0.8521867
11
18.9252396
21
-0.9622215
0
LINE
8
DEFAULT_255_1_234
10
18.9252396
20
-0.9622215
11
18.9252396
21
-0.8272883
0
LINE
8
DEFAULT_255_1_234
10
18.9252396
20
-0.8272883
11
19.3509217
21
-0.6674567
0
LINE
8
DEFAULT_255_1_234
10
19.3509217
20
-0.6674567
11
19.3742137
21
-0.6674567
0
LINE
8
DEFAULT_255_1_234
10
20.0255877
20
-1.3067831
11
20.0255877
21
-1.1855038
0
LINE
8
DEFAULT_255_1_234
10
20.0255877
20
-1.1855038
11
20.1372289
21
-1.1855038
0
LINE
8
DEFAULT_255_1_234
10
19.9468767
20
-0.9798913
11
19.7982895
21
-0.9798913
0
LINE
8
DEFAULT_255_1_234
10
19.7878482
20
-1.5340812
11
19.9372386
21
-1.5340812
0
LINE
8
DEFAULT_255_1_234
10
20.1372289
20
-1.3067831
11
20.0255877
21
-1.3067831
0
ARC
8
DEFAULT_255_1_234
10
20.1343155
20
-0.8462287
40
0.3392876
50
270.4919872
51
281.8951556
0
ARC
8
DEFAULT_255_1_234
10
20.1584417
20
-0.9564298
40
0.2264817
50
281.6691735
51
301.2943132
0
ARC
8
DEFAULT_255_1_234
10
20.1754627
20
-0.9875696
40
0.1910381
50
301.7833094
51
311.7545298
0
ARC
8
DEFAULT_255_1_234
10
20.1846203
20
-0.9977252
40
0.1773635
50
311.7323931
51
354.2802411
0
ARC
8
DEFAULT_255_1_234
10
20.1119828
20
-0.9852278
40
0.2509385
50
353.0937916
51
0.1181479
0
ARC
8
DEFAULT_255_1_234
10
20.0658613
20
-0.9804614
40
0.2970898
50
359.1805295
51
15.0453146
0
ARC
8
DEFAULT_255_1_234
10
20.200445
20
-0.9412008
40
0.1569564
50
13.9577229
51
77.6713066
0
ARC
8
DEFAULT_255_1_234
10
20.1617979
20
-1.0797051
40
0.3006298
50
76.1116566
51
90.7026153
0
ARC
8
DEFAULT_255_1_234
10
20.1558817
20
-1.0523455
40
0.2732568
50
89.5324876
51
103.531937
0
ARC
8
DEFAULT_255_1_234
10
20.1358261
20
-0.9724116
40
0.1908508
50
103.2931773
51
133.5619022
0
ARC
8
DEFAULT_255_1_234
10
20.131375
20
-0.9664625
40
0.1834746
50
133.8349307
51
173.5344437
0
ARC
8
DEFAULT_255_1_234
10
20.2036793
20
-0.9792787
40
0.2568033
50
172.5096846
51
180.1366907
0
ARC
8
DEFAULT_255_1_234
10
20.1085687
20
-0.9758378
40
0.3103056
50
155.3484492
51
180.7484736
0
ARC
8
DEFAULT_255_1_234
10
20.1036776
20
-0.9787154
40
0.3070957
50
131.5744599
51
154.4798489
0
ARC
8
DEFAULT_255_1_234
10
20.1349923
20
-1.010369
40
0.3515643
50
96.9875458
51
131.9690667
0
ARC
8
DEFAULT_255_1_234
10
20.1569403
20
-1.1349364
40
0.4779224
50
89.8596053
51
97.7825159
0
ARC
8
DEFAULT_255_1_234
10
20.1617466
20
-1.1611384
40
0.5041361
50
78.3655447
51
90.4131539
0
ARC
8
DEFAULT_255_1_234
10
20.1975384
20
-0.9952113
40
0.3344039
50
56.6229102
51
78.638727
0
ARC
8
DEFAULT_255_1_234
10
20.2190328
20
-0.9576195
40
0.2912001
50
47.0253525
51
56.0854072
0
ARC
8
DEFAULT_255_1_234
10
20.2210108
20
-0.9536777
40
0.2869704
50
10.9208013
51
46.7778124
0
ARC
8
DEFAULT_255_1_234
10
20.0846174
20
-0.9852143
40
0.426899
50
359.6364486
51
11.6087304
0
ARC
8
DEFAULT_255_1_234
10
20.2681018
20
-0.9867248
40
0.243409
50
332.3549906
51
359.7179418
0
ARC
8
DEFAULT_255_1_234
10
20.203062
20
-0.9558858
40
0.3153459
50
325.2333722
51
332.8745602
0
ARC
8
DEFAULT_255_1_234
10
20.2183244
20
-0.9665172
40
0.2967456
50
292.9802137
51
325.2392345
0
ARC
8
DEFAULT_255_1_234
10
20.1908617
20
-0.9131137
40
0.3566604
50
292.5402179
51
293.6924929
0
ARC
8
DEFAULT_255_1_234
10
20.2301213
20
-1.5585909
40
0.3307468
50
57.6435486
51
72.8625112
0
ARC
8
DEFAULT_255_1_234
10
20.2655713
20
-1.5011451
40
0.2632492
50
36.7248896
51
57.4697979
0
ARC
8
DEFAULT_255_1_234
10
20.2644346
20
-1.499878
40
0.2634081
50
8.0545065
51
36.356114
0
ARC
8
DEFAULT_255_1_234
10
20.1781531
20
-1.5153826
40
0.3510261
50
359.8320645
51
8.5869982
0
ARC
8
DEFAULT_255_1_234
10
20.1406307
20
-1.5201899
40
0.3885653
50
343.9829931
51
0.5571613
0
ARC
8
DEFAULT_255_1_234
10
20.2292504
20
-1.5444562
40
0.2966924
50
311.6359546
51
343.7651759
0
ARC
8
DEFAULT_255_1_234
10
20.1914074
20
-1.5017898
40
0.3537231
50
279.7829875
51
311.6255694
0
ARC
8
DEFAULT_255_1_234
10
20.161285
20
-1.358072
40
0.5004971
50
269.7286406
51
280.3856417
0
ARC
8
DEFAULT_255_1_234
10
20.1550922
20
-1.3622004
40
0.4963778
50
256.6828919
51
270.4412052
0
ARC
8
DEFAULT_255_1_234
10
20.1212218
20
-1.5006606
40
0.3538406
50
229.4223008
51
256.8556159
0
ARC
8
DEFAULT_255_1_234
10
20.0797611
20
-1.5473264
40
0.2914296
50
181.818294
51
229.6455059
0
ARC
8
DEFAULT_255_1_234
10
20.1837567
20
-1.5342504
40
0.3959084
50
179.9755256
51
183.2323064
0
ARC
8
DEFAULT_255_1_234
10
20.1665313
20
-1.5362963
40
0.2293034
50
179.4465117
51
196.2869258
0
ARC
8
DEFAULT_255_1_234
10
20.1177721
20
-1.5496349
40
0.1787621
50
196.5661473
51
227.705904
0
ARC
8
DEFAULT_255_1_234
10
20.1341816
20
-1.5312845
40
0.2033784
50
227.7652068
51
257.8762805
0
ARC
8
DEFAULT_255_1_234
10
20.1566786
20
-1.4369844
40
0.3003081
50
257.4584385
51
270.426602
0
ARC
8
DEFAULT_255_1_234
10
20.1612352
20
-1.4080004
40
0.329292
50
269.5962073
51
280.8789248
0
ARC
8
DEFAULT_255_1_234
10
20.1841881
20
-1.5226315
40
0.2123908
50
280.6346389
51
299.8595945
0
ARC
8
DEFAULT_255_1_234
10
20.2032788
20
-1.5588788
40
0.171457
50
300.3576302
51
314.5517981
0
ARC
8
DEFAULT_255_1_234
10
20.1949848
20
-1.5528081
40
0.1816095
50
315.0728369
51
345.0431014
0
ARC
8
DEFAULT_255_1_234
10
20.1026662
20
-1.5259159
40
0.2777492
50
344.5986631
51
357.9269593
0
ARC
8
DEFAULT_255_1_234
10
20.0130989
20
-1.5197724
40
0.3674917
50
357.4748886
51
0.0231117
0
ARC
8
DEFAULT_255_1_234
10
20.1154098
20
-1.5173321
40
0.2651907
50
359.5047933
51
13.4239635
0
ARC
8
DEFAULT_255_1_234
10
20.2020741
20
-1.4951522
40
0.1757509
50
12.9498199
51
48.7551375
0
ARC
8
DEFAULT_255_1_234
10
20.1838475
20
-1.52006
40
0.2065134
50
49.5088623
51
72.1836453
0
ARC
8
DEFAULT_255_1_234
10
20.1480628
20
-1.6262709
40
0.3185836
50
71.9010081
51
84.3554254
0
ARC
8
DEFAULT_255_1_234
10
20.131926
20
-1.7623674
40
0.4556151
50
84.0193428
51
89.333121
0
LINE
8
DEFAULT_255_1_234
10
-0.7673701
20
1.9735211
11
-0.4854561
21
1.5253501
0
LINE
8
DEFAULT_255_1_234
10
-0.4854561
20
1.5253501
11
-0.2051484
21
1.9735211
0
LINE
8
DEFAULT_255_1_234
10
-0.2051484
20
1.9735211
11
-0.0236311
21
1.9735211
0
LINE
8
DEFAULT_255_1_234
10
-0.0236311
20
1.9735211
11
-0.3930911
21
1.3936296
0
LINE
8
DEFAULT_255_1_234
10
-0.3930911
20
1.3936296
11
-0.0147962
21
0.8041
0
LINE
8
DEFAULT_255_1_234
10
-0.0147962
20
0.8041
11
-0.1979198
21
0.8041
0
LINE
8
DEFAULT_255_1_234
10
-0.1979198
20
0.8041
11
-0.4854561
21
1.2603027
0
LINE
8
DEFAULT_255_1_234
10
-0.4854561
20
1.2603027
11
-0.7745986
21
0.8041
0
LINE
8
DEFAULT_255_1_234
10
-0.7745986
20
0.8041
11
-0.9569191
21
0.8041
0
LINE
8
DEFAULT_255_1_234
10
-0.9569191
20
0.8041
11
-0.577821
21
1.3936296
0
LINE
8
DEFAULT_255_1_234
10
-0.577821
20
1.3936296
11
-0.9480842
21
1.9735211
0
LINE
8
DEFAULT_255_1_234
10
-0.9480842
20
1.9735211
11
-0.7673701
21
1.9735211
0
LINE
8
DEFAULT_255_1_234
10
0.6140889
20
1.9791433
11
0.6140889
21
0.8041
0
LINE
8
DEFAULT_255_1_234
10
0.6140889
20
0.8041
11
0.4646986
21
0.8041
0
LINE
8
DEFAULT_255_1_234
10
0.4646986
20
0.8041
11
0.4646986
21
1.7944133
0
LINE
8
DEFAULT_255_1_234
10
0.4646986
20
1.7944133
11
0.1651147
21
1.6843785
0
LINE
8
DEFAULT_255_1_234
10
0.1651147
20
1.6843785
11
0.1651147
21
1.8193117
0
LINE
8
DEFAULT_255_1_234
10
0.1651147
20
1.8193117
11
0.5907969
21
1.9791433
0
LINE
8
DEFAULT_255_1_234
10
0.5907969
20
1.9791433
11
0.6140889
21
1.9791433
0
LINE
8
DEFAULT_255_1_234
10
19.8555119
20
13.5753792
11
19.8555119
21
13.4541
0
LINE
8
DEFAULT_255_1_234
10
19.8555119
20
13.4541
11
19.089284
21
13.4541
0
LINE
8
DEFAULT_255_1_234
10
19.089284
20
13.4541
11
19.089284
21
13.5609221
0
LINE
8
DEFAULT_255_1_234
10
19.089284
20
13.5609221
11
19.4940836
21
14.0106995
0
LINE
8
DEFAULT_255_1_234
10
19.2153823
20
14.2789595
11
19.0667952
21
14.2789595
0
LINE
8
DEFAULT_255_1_234
10
19.5816296
20
13.9151218
11
19.2683918
21
13.5753792
0
LINE
8
DEFAULT_255_1_234
10
19.2683918
20
13.5753792
11
19.8555119
21
13.5753792
0
ARC
8
DEFAULT_255_1_234
10
18.145067
20
15.2036527
40
1.8008286
50
318.5132453
51
320.7828378
0
ARC
8
DEFAULT_255_1_234
10
18.6737644
20
14.7733426
40
1.1191493
50
320.7372736
51
323.9737074
0
ARC
8
DEFAULT_255_1_234
10
19.0657501
20
14.4893361
40
0.6350923
50
323.8961724
51
328.6421089
0
ARC
8
DEFAULT_255_1_234
10
19.2704096
20
14.3631031
40
0.3946393
50
328.8299013
51
331.789948
0
ARC
8
DEFAULT_255_1_234
10
19.3701274
20
14.3116509
40
0.2824501
50
331.4255242
51
352.9364833
0
ARC
8
DEFAULT_255_1_234
10
19.3837775
20
14.3085976
40
0.2685315
50
353.2248685
51
0.0169286
0
ARC
8
DEFAULT_255_1_234
10
19.4047652
20
14.310895
40
0.2475536
50
359.4866256
51
15.9339782
0
ARC
8
DEFAULT_255_1_234
10
19.4554637
20
14.3245286
40
0.1950618
50
16.1714718
51
43.5284424
0
ARC
8
DEFAULT_255_1_234
10
19.4631946
20
14.3322573
40
0.184134
50
43.4415429
51
83.1661404
0
ARC
8
DEFAULT_255_1_234
10
19.4497864
20
14.2585771
40
0.258926
50
82.160215
51
90.1505798
0
ARC
8
DEFAULT_255_1_234
10
19.4466291
20
14.2048865
40
0.3126255
50
89.5460705
51
102.5418777
0
ARC
8
DEFAULT_255_1_234
10
19.4223377
20
14.3079665
40
0.2067346
50
102.1739365
51
129.2061916
0
ARC
8
DEFAULT_255_1_234
10
19.4144449
20
14.3204094
40
0.1921118
50
129.7279328
51
135.7542026
0
ARC
8
DEFAULT_255_1_234
10
19.4265977
20
14.3107045
40
0.2075944
50
136.175737
51
166.3674722
0
ARC
8
DEFAULT_255_1_234
10
19.5272896
20
14.2837182
40
0.3118201
50
165.9092917
51
178.8683903
0
ARC
8
DEFAULT_255_1_234
10
19.6137757
20
14.2790179
40
0.3983935
50
178.438168
51
180.0083905
0
ARC
8
DEFAULT_255_1_234
10
19.4736359
20
14.2829231
40
0.4068601
50
163.2878735
51
180.5581814
0
ARC
8
DEFAULT_255_1_234
10
19.3934621
20
14.304984
40
0.3237344
50
133.454115
51
162.9470031
0
ARC
8
DEFAULT_255_1_234
10
19.4113162
20
14.286
40
0.349795
50
100.7869394
51
133.4384016
0
ARC
8
DEFAULT_255_1_234
10
19.4460934
20
14.1311319
40
0.5084616
50
89.6605301
51
101.3704185
0
ARC
8
DEFAULT_255_1_234
10
19.4527273
20
14.1372496
40
0.502348
50
78.2171172
51
90.4130393
0
ARC
8
DEFAULT_255_1_234
10
19.4882351
20
14.2996637
40
0.3361092
50
55.9268222
51
78.4888551
0
ARC
8
DEFAULT_255_1_234
10
19.5078791
20
14.3335324
40
0.2970617
50
47.9292255
51
55.4054003
0
ARC
8
DEFAULT_255_1_234
10
19.5180352
20
14.3438502
40
0.2825983
50
4.3347696
51
48.0560701
0
ARC
8
DEFAULT_255_1_234
10
19.4084745
20
14.3268601
40
0.393225
50
359.925209
51
5.5967654
0
ARC
8
DEFAULT_255_1_234
10
19.4513637
20
14.3324816
40
0.3503892
50
337.8914096
51
358.9967724
0
ARC
8
DEFAULT_255_1_234
10
19.1800049
20
14.4371706
40
0.6412172
50
326.9135351
51
338.3505194
0
ARC
8
DEFAULT_255_1_234
10
18.7814353
20
14.6926284
40
1.1146189
50
319.6472867
51
327.095818
0
ARC
8
DEFAULT_255_1_234
10
18.3981356
20
15.0088
40
1.6114559
50
317.2586784
51
319.9046139
0
LINE
8
DEFAULT_255_1_234
10
20.6402127
20
14.6235211
11
20.6402127
21
13.846852
0
LINE
8
DEFAULT_255_1_234
10
20.6402127
20
13.846852
11
20.8024538
21
13.846852
0
LINE
8
DEFAULT_255_1_234
10
20.8024538
20
13.846852
11
20.8024538
21
13.7255728
0
LINE
8
DEFAULT_255_1_234
10
20.8024538
20
13.7255728
11
20.6402127
21
13.7255728
0
LINE
8
DEFAULT_255_1_234
10
20.6402127
20
13.7255728
11
20.6402127
21
13.4541
0
LINE
8
DEFAULT_255_1_234
10
20.6402127
20
13.4541
11
20.4908224
21
13.4541
0
LINE
8
DEFAULT_255_1_234
10
20.4908224
20
13.4541
11
20.4908224
21
13.7255728
0
LINE
8
DEFAULT_255_1_234
10
20.4908224
20
13.7255728
11
19.9583181
21
13.7255728
0
LINE
8
DEFAULT_255_1_234
10
19.9583181
20
13.7255728
11
19.9583181
21
13.8131187
0
LINE
8
DEFAULT_255_1_234
10
19.9583181
20
13.8131187
11
20.4819875
21
14.6235211
0
LINE
8
DEFAULT_255_1_234
10
20.4819875
20
14.6235211
11
20.6402127
21
14.6235211
0
LINE
8
DEFAULT_255_1_234
10
20.4731525
20
14.3881912
11
20.1269846
21
13.846852
0
LINE
8
DEFAULT_255_1_234
10
20.1269846
20
13.846852
11
20.4908224
21
13.846852
0
LINE
8
DEFAULT_255_1_234
10
20.4908224
20
13.846852
11
20.4908224
21
14.4203181
0
LINE
8
DEFAULT_255_1_234
10
20.4908224
20
14.4203181
11
20.4731525
21
14.3881912
0
LINE
8
DEFAULT_255_1_234
10
44.5179299
20
1.9735211
11
44.7998439
21
1.5253501
0
LINE
8
DEFAULT_255_1_234
10
44.7998439
20
1.5253501
11
45.0801516
21
1.9735211
0
LINE
8
DEFAULT_255_1_234
10
45.0801516
20
1.9735211
11
45.2616689
21
1.9735211
0
LINE
8
DEFAULT_255_1_234
10
45.2616689
20
1.9735211
11
44.8922089
21
1.3936296
0
LINE
8
DEFAULT_255_1_234
10
44.8922089
20
1.3936296
11
45.2705038
21
0.8041
0
LINE
8
DEFAULT_255_1_234
10
45.2705038
20
0.8041
11
45.0873802
21
0.8041
0
LINE
8
DEFAULT_255_1_234
10
45.0873802
20
0.8041
11
44.7998439
21
1.2603027
0
LINE
8
DEFAULT_255_1_234
10
44.7998439
20
1.2603027
11
44.5107014
21
0.8041
0
LINE
8
DEFAULT_255_1_234
10
44.5107014
20
0.8041
11
44.3283809
21
0.8041
0
LINE
8
DEFAULT_255_1_234
10
44.3283809
20
0.8041
11
44.707479
21
1.3936296
0
LINE
8
DEFAULT_255_1_234
10
44.707479
20
1.3936296
11
44.3372158
21
1.9735211
0
LINE
8
DEFAULT_255_1_234
10
44.3372158
20
1.9735211
11
44.5179299
21
1.9735211
0
LINE
8
DEFAULT_255_1_234
10
46.1772871
20
0.9253792
11
46.1772871
21
0.8041
0
LINE
8
DEFAULT_255_1_234
10
46.1772871
20
0.8041
11
45.4110592
21
0.8041
0
LINE
8
DEFAULT_255_1_234
10
45.4110592
20
0.8041
11
45.4110592
21
0.9109221
0
LINE
8
DEFAULT_255_1_234
10
45.4110592
20
0.9109221
11
45.8158588
21
1.3606995
0
LINE
8
DEFAULT_255_1_234
10
45.5371575
20
1.6289595
11
45.3885704
21
1.6289595
0
LINE
8
DEFAULT_255_1_234
10
45.9034048
20
1.2651218
11
45.590167
21
0.9253792
0
LINE
8
DEFAULT_255_1_234
10
45.590167
20
0.9253792
11
46.1772871
21
0.9253792
0
ARC
8
DEFAULT_255_1_234
10
44.4668422
20
2.5536527
40
1.8008286
50
318.5132453
51
320.7828378
0
ARC
8
DEFAULT_255_1_234
10
44.9955396
20
2.1233426
40
1.1191493
50
320.7372736
51
323.9737074
0
ARC
8
DEFAULT_255_1_234
10
45.3875252
20
1.8393361
40
0.6350923
50
323.8961724
51
328.6421089
0
ARC
8
DEFAULT_255_1_234
10
45.5921848
20
1.7131031
40
0.3946393
50
328.8299013
51
331.789948
0
ARC
8
DEFAULT_255_1_234
10
45.6919026
20
1.6616509
40
0.2824501
50
331.4255242
51
352.9364833
0
ARC
8
DEFAULT_255_1_234
10
45.7055527
20
1.6585976
40
0.2685315
50
353.2248685
51
0.0169286
0
ARC
8
DEFAULT_255_1_234
10
45.7265404
20
1.660895
40
0.2475536
50
359.4866256
51
15.9339782
0
ARC
8
DEFAULT_255_1_234
10
45.7772389
20
1.6745286
40
0.1950618
50
16.1714718
51
43.5284424
0
ARC
8
DEFAULT_255_1_234
10
45.7849698
20
1.6822573
40
0.184134
50
43.4415429
51
83.1661404
0
ARC
8
DEFAULT_255_1_234
10
45.7715616
20
1.6085771
40
0.258926
50
82.160215
51
90.1505798
0
ARC
8
DEFAULT_255_1_234
10
45.7684043
20
1.5548865
40
0.3126255
50
89.5460705
51
102.5418777
0
ARC
8
DEFAULT_255_1_234
10
45.7441129
20
1.6579665
40
0.2067346
50
102.1739365
51
129.2061916
0
ARC
8
DEFAULT_255_1_234
10
45.7362201
20
1.6704094
40
0.1921118
50
129.7279328
51
135.7542026
0
ARC
8
DEFAULT_255_1_234
10
45.7483729
20
1.6607045
40
0.2075944
50
136.175737
51
166.3674722
0
ARC
8
DEFAULT_255_1_234
10
45.8490648
20
1.6337182
40
0.3118201
50
165.9092917
51
178.8683903
0
ARC
8
DEFAULT_255_1_234
10
45.9355509
20
1.6290179
40
0.3983935
50
178.438168
51
180.0083905
0
ARC
8
DEFAULT_255_1_234
10
45.7954111
20
1.6329231
40
0.4068601
50
163.2878735
51
180.5581814
0
ARC
8
DEFAULT_255_1_234
10
45.7152373
20
1.654984
40
0.3237344
50
133.454115
51
162.9470031
0
ARC
8
DEFAULT_255_1_234
10
45.7330914
20
1.636
40
0.349795
50
100.7869394
51
133.4384016
0
ARC
8
DEFAULT_255_1_234
10
45.7678686
20
1.4811319
40
0.5084616
50
89.6605301
51
101.3704185
0
ARC
8
DEFAULT_255_1_234
10
45.7745024
20
1.4872496
40
0.502348
50
78.2171172
51
90.4130393
0
ARC
8
DEFAULT_255_1_234
10
45.8100103
20
1.6496637
40
0.3361092
50
55.9268222
51
78.4888551
0
ARC
8
DEFAULT_255_1_234
10
45.8296543
20
1.6835324
40
0.2970617
50
47.9292255
51
55.4054003
0
ARC
8
DEFAULT_255_1_234
10
45.8398103
20
1.6938502
40
0.2825983
50
4.3347696
51
48.0560701
0
ARC
8
DEFAULT_255_1_234
10
45.7302497
20
1.6768601
40
0.393225
50
359.925209
51
5.5967654
0
ARC
8
DEFAULT_255_1_234
10
45.7731389
20
1.6824816
40
0.3503892
50
337.8914096
51
358.9967724
0
ARC
8
DEFAULT_255_1_234
10
45.5017801
20
1.7871706
40
0.6412172
50
326.9135351
51
338.3505194
0
ARC
8
DEFAULT_255_1_234
10
45.1032105
20
2.0426284
40
1.1146189
50
319.6472867
51
327.095818
0
ARC
8
DEFAULT_255_1_234
10
44.7199108
20
2.3588
40
1.6114559
50
317.2586784
51
319.9046139
0
ENDSEC
0
EOF