0
SECTION
2
HEADER
9
$MEASUREMENT
70
1
0
ENDSEC
0
SECTION
2
TABLES
0
TABLE
2
LTYPE
0
LTYPE
72
65
70
64
2
CONTINUOUS
3
______
73
0
40
0
0
ENDTAB
0
TABLE
2
LAYER
0
LAYER
2
DEFAULT_255_2_778
70
0
62
255
6
CONTINUOUS
0
LAYER
2
DEFAULT_255_1_388
70
0
62
255
6
CONTINUOUS
0
ENDTAB
0
ENDSEC
0
SECTION
2
ENTITIES
0
LINE
8
DEFAULT_255_2_778
10
11.2367503
20
10.4510499
11
35.0492503
21
10.4510499
0
LINE
8
DEFAULT_255_2_778
10
35.0492503
20
10.4510499
11
35.0492503
21
2.5135499
0
LINE
8
DEFAULT_255_2_778
10
35.0492503
20
2.5135499
11
11.2367503
21
2.5135499
0
LINE
8
DEFAULT_255_2_778
10
11.2367503
20
2.5135499
11
11.2367503
21
10.4510499
0
LINE
8
DEFAULT_255_2_778
10
19.1742501
20
10.4510499
11
19.1742501
21
2.5135499
0
LINE
8
DEFAULT_255_2_778
10
27.1117501
20
10.4510499
11
27.1117501
21
2.5135499
0
LINE
8
DEFAULT_255_2_778
10
29.7576417
20
2.5135499
11
29.7576417
21
10.4510499
0
LINE
8
DEFAULT_255_2_778
10
29.7576417
20
10.4510499
11
29.0961417
21
8.4666499
0
LINE
8
DEFAULT_255_2_778
10
29.0961417
20
8.4666499
11
30.4190417
21
8.4666499
0
LINE
8
DEFAULT_255_2_778
10
30.4190417
20
8.4666499
11
29.7576417
21
10.4510499
0
LINE
8
DEFAULT_255_2_778
10
32.4034
20
2.5135499
11
32.4034
21
10.4510499
0
LINE
8
DEFAULT_255_2_778
10
31.7419417
20
4.4978875
11
33.0648417
21
4.4978875
0
LINE
8
DEFAULT_255_2_778
10
33.0648417
20
4.4978875
11
32.4034417
21
2.5134875
0
LINE
8
DEFAULT_255_2_778
10
32.4034417
20
2.5134875
11
31.7419417
21
4.4978875
0
LINE
8
DEFAULT_255_2_778
10
24.4658834
20
15.7427164
11
24.4658834
21
-2.7780836
0
LINE
8
DEFAULT_255_2_778
10
21.8200834
20
-2.7780836
11
21.8200834
21
5.1594164
0
LINE
8
DEFAULT_255_2_778
10
21.1586542
20
5.1593665
11
22.4815542
21
5.1593665
0
LINE
8
DEFAULT_255_2_778
10
21.8201542
20
15.7426665
11
21.8201542
21
6.4822665
0
LINE
8
DEFAULT_255_2_778
10
21.8201542
20
6.4822665
11
24.4659542
21
6.4822665
0
ARC
8
DEFAULT_255_2_778
10
24.4644557
20
6.4837443
40
0.6600157
50
89.871003
51
180.128997
0
ARC
8
DEFAULT_255_2_778
10
24.467349
20
6.4837655
40
0.6599943
50
359.8691577
51
90.1221758
0
ARC
8
DEFAULT_255_2_778
10
24.4673705
20
6.4808295
40
0.6599728
50
269.8759594
51
0.1240406
0
ARC
8
DEFAULT_255_2_778
10
24.4644345
20
6.4808508
40
0.6599942
50
179.8778094
51
270.1308423
0
LINE
8
DEFAULT_255_2_778
10
23.8044417
20
6.4822583
11
23.8044417
21
6.4822583
0
LINE
8
DEFAULT_255_2_778
10
16.5283834
20
10.4509749
11
16.5283834
21
6.4822749
0
LINE
8
DEFAULT_255_2_778
10
16.5283834
20
6.4822749
11
13.8825834
21
6.4822749
0
LINE
8
DEFAULT_255_2_778
10
13.8826
20
10.4510499
11
13.8826
21
2.5135499
0
ARC
8
DEFAULT_255_2_778
10
13.8811557
20
6.4837443
40
0.6600157
50
89.871003
51
180.128997
0
ARC
8
DEFAULT_255_2_778
10
13.884049
20
6.4837655
40
0.6599943
50
359.8691577
51
90.1221758
0
ARC
8
DEFAULT_255_2_778
10
13.8840705
20
6.4808295
40
0.6599728
50
269.8759594
51
0.1240406
0
ARC
8
DEFAULT_255_2_778
10
13.8811345
20
6.4808508
40
0.6599942
50
179.8778094
51
270.1308423
0
LINE
8
DEFAULT_255_2_778
10
13.2211417
20
6.4822583
11
13.2211417
21
6.4822583
0
LINE
8
DEFAULT_255_2_778
10
16.5284
20
2.5135166
11
16.5284
21
5.1593166
0
LINE
8
DEFAULT_255_2_778
10
17.1898506
20
5.1593333
11
15.8669506
21
5.1593333
0
LINE
8
DEFAULT_255_2_778
10
37.6950506
20
5.1593333
11
42.9867506
21
5.1593333
0
LINE
8
DEFAULT_255_2_778
10
42.9867506
20
5.1593333
11
42.9867506
21
-0.1323667
0
LINE
8
DEFAULT_255_2_778
10
8.5909506
20
5.1593333
11
3.2992506
21
5.1593333
0
LINE
8
DEFAULT_255_2_778
10
3.2992506
20
5.1593333
11
3.2992506
21
-0.1323667
0
LINE
8
DEFAULT_255_2_778
10
8.5909417
20
6.4822166
11
8.5909417
21
3.8364166
0
LINE
8
DEFAULT_255_2_778
10
8.5909417
20
3.8364166
11
9.9138417
21
5.1593166
0
LINE
8
DEFAULT_255_2_778
10
9.9138417
20
5.1593166
11
8.5909417
21
6.4822166
0
LINE
8
DEFAULT_255_2_778
10
11.2367417
20
5.1593
11
9.9138417
21
5.1593
0
LINE
8
DEFAULT_255_2_778
10
37.6950417
20
6.4822166
11
37.6950417
21
3.8364166
0
LINE
8
DEFAULT_255_2_778
10
37.6950417
20
3.8364166
11
36.3721417
21
5.1593166
0
LINE
8
DEFAULT_255_2_778
10
36.3721417
20
5.1593166
11
37.6950417
21
6.4822166
0
LINE
8
DEFAULT_255_2_778
10
35.0492525
20
5.1593333
11
36.3721525
21
5.1593333
0
LINE
8
DEFAULT_255_2_778
10
35.0492525
20
8.8635333
11
35.3432525
21
10.4510333
0
LINE
8
DEFAULT_255_2_778
10
35.3432525
20
10.4510333
11
35.7842525
21
7.8052333
0
LINE
8
DEFAULT_255_2_778
10
35.7842525
20
7.8052333
11
36.2253525
21
10.4510333
0
LINE
8
DEFAULT_255_2_778
10
36.2253525
20
10.4510333
11
36.6664525
21
7.8052333
0
LINE
8
DEFAULT_255_2_778
10
36.6664525
20
7.8052333
11
37.1074525
21
10.4510333
0
LINE
8
DEFAULT_255_2_778
10
37.1074525
20
10.4510333
11
37.5485525
21
7.8052333
0
LINE
8
DEFAULT_255_2_778
10
37.5485525
20
7.8052333
11
37.6956525
21
8.8635333
0
LINE
8
DEFAULT_255_2_778
10
11.2367525
20
8.8635333
11
10.9428525
21
10.4510333
0
LINE
8
DEFAULT_255_2_778
10
10.9428525
20
10.4510333
11
10.5017525
21
7.8052333
0
LINE
8
DEFAULT_255_2_778
10
10.5017525
20
7.8052333
11
10.0607525
21
10.4510333
0
LINE
8
DEFAULT_255_2_778
10
10.0607525
20
10.4510333
11
9.6196525
21
7.8052333
0
LINE
8
DEFAULT_255_2_778
10
9.6196525
20
7.8052333
11
9.1785525
21
10.4510333
0
LINE
8
DEFAULT_255_2_778
10
9.1785525
20
10.4510333
11
8.7375525
21
7.8052333
0
LINE
8
DEFAULT_255_2_778
10
8.7375525
20
7.8052333
11
8.5909525
21
8.8635333
0
LINE
8
DEFAULT_255_1_388
10
19.3321985
20
-0.5089852
11
19.3321985
21
-1.8309
0
LINE
8
DEFAULT_255_1_388
10
19.3321985
20
-1.8309
11
19.1641355
21
-1.8309
0
LINE
8
DEFAULT_255_1_388
10
19.1641355
20
-1.8309
11
19.1641355
21
-0.716805
0
LINE
8
DEFAULT_255_1_388
10
19.1641355
20
-0.716805
11
18.827106
21
-0.8405934
0
LINE
8
DEFAULT_255_1_388
10
18.827106
20
-0.8405934
11
18.827106
21
-0.6887945
0
LINE
8
DEFAULT_255_1_388
10
18.827106
20
-0.6887945
11
19.3059951
21
-0.5089852
0
LINE
8
DEFAULT_255_1_388
10
19.3059951
20
-0.5089852
11
19.3321985
21
-0.5089852
0
LINE
8
DEFAULT_255_1_388
10
20.0649893
20
-1.2282225
11
20.0649893
21
-1.0917843
0
LINE
8
DEFAULT_255_1_388
10
20.0649893
20
-1.0917843
11
20.1905847
21
-1.0917843
0
LINE
8
DEFAULT_255_1_388
10
19.9764399
20
-0.8604718
11
19.8092805
21
-0.8604718
0
LINE
8
DEFAULT_255_1_388
10
19.7975342
20
-1.4839312
11
19.9655972
21
-1.4839312
0
LINE
8
DEFAULT_255_1_388
10
20.1905847
20
-1.2282225
11
20.0649893
21
-1.2282225
0
ARC
8
DEFAULT_255_1_388
10
20.1873074
20
-0.7101078
40
0.3816905
50
270.491971
51
281.8953028
0
ARC
8
DEFAULT_255_1_388
10
20.2144501
20
-0.8340801
40
0.2547877
50
281.6690378
51
301.2943765
0
ARC
8
DEFAULT_255_1_388
10
20.2335952
20
-0.8691074
40
0.2149197
50
301.7834992
51
311.754567
0
ARC
8
DEFAULT_255_1_388
10
20.2438993
20
-0.880535
40
0.1995326
50
311.7325027
51
354.2803031
0
ARC
8
DEFAULT_255_1_388
10
20.1621409
20
-0.866472
40
0.2823461
50
353.0941646
51
0.1174696
0
ARC
8
DEFAULT_255_1_388
10
20.1102967
20
-0.8611126
40
0.3342238
50
359.1804452
51
15.0452323
0
ARC
8
DEFAULT_255_1_388
10
20.2617026
20
-0.8169454
40
0.1765747
50
13.957816
51
77.6713812
0
ARC
8
DEFAULT_255_1_388
10
20.2182261
20
-0.9727536
40
0.3381982
50
76.111571
51
90.7028736
0
ARC
8
DEFAULT_255_1_388
10
20.2115673
20
-0.941975
40
0.3074046
50
89.5321574
51
103.5319393
0
ARC
8
DEFAULT_255_1_388
10
20.1890057
20
-0.8520557
40
0.2147041
50
103.2930114
51
133.5619756
0
ARC
8
DEFAULT_255_1_388
10
20.1839999
20
-0.8453649
40
0.2064084
50
133.8349761
51
173.5343225
0
ARC
8
DEFAULT_255_1_388
10
20.2653656
20
-0.8597856
40
0.2889266
50
172.5097183
51
180.1360699
0
ARC
8
DEFAULT_255_1_388
10
20.158342
20
-0.855912
40
0.3490913
50
155.3483706
51
180.7484035
0
ARC
8
DEFAULT_255_1_388
10
20.1528396
20
-0.8591481
40
0.3454798
50
131.5745177
51
154.4799474
0
ARC
8
DEFAULT_255_1_388
10
20.1880678
20
-0.8947578
40
0.3955058
50
96.9874487
51
131.9690874
0
ARC
8
DEFAULT_255_1_388
10
20.2127571
20
-1.0348593
40
0.537622
50
89.8592909
51
97.7827481
0
ARC
8
DEFAULT_255_1_388
10
20.218168
20
-1.064364
40
0.5671399
50
78.3654493
51
90.4132586
0
ARC
8
DEFAULT_255_1_388
10
20.2584321
20
-0.8777082
40
0.3762034
50
56.6229818
51
78.6387103
0
ARC
8
DEFAULT_255_1_388
10
20.282615
20
-0.8354154
40
0.3275964
50
47.0254604
51
56.085558
0
ARC
8
DEFAULT_255_1_388
10
20.2848401
20
-0.8309811
40
0.3228382
50
10.9207523
51
46.777927
0
ARC
8
DEFAULT_255_1_388
10
20.1313995
20
-0.8664599
40
0.4802559
50
359.6364235
51
11.6087615
0
ARC
8
DEFAULT_255_1_388
10
20.3378161
20
-0.8681596
40
0.273833
50
332.3549969
51
359.7179765
0
ARC
8
DEFAULT_255_1_388
10
20.2646562
20
-0.8334715
40
0.3547505
50
325.2332381
51
332.8746682
0
ARC
8
DEFAULT_255_1_388
10
20.2818144
20
-0.8454237
40
0.3338396
50
292.9803892
51
325.2391113
0
ARC
8
DEFAULT_255_1_388
10
20.250734
20
-0.7849321
40
0.4016959
50
292.542178
51
293.6931461
0
ARC
8
DEFAULT_255_1_388
10
20.2950912
20
-1.5114964
40
0.372079
50
57.643292
51
72.8626085
0
ARC
8
DEFAULT_255_1_388
10
20.3349747
20
-1.4468727
40
0.2961455
50
36.7246661
51
57.4701329
0
ARC
8
DEFAULT_255_1_388
10
20.3336903
20
-1.445453
40
0.2963321
50
8.054535
51
36.3561529
0
ARC
8
DEFAULT_255_1_388
10
20.2366576
20
-1.4628927
40
0.3948682
50
359.8316595
51
8.5873361
0
ARC
8
DEFAULT_255_1_388
10
20.194405
20
-1.468303
40
0.4371398
50
343.9831631
51
0.557075
0
ARC
8
DEFAULT_255_1_388
10
20.29411
20
-1.4956037
40
0.3337749
50
311.6358204
51
343.7652116
0
ARC
8
DEFAULT_255_1_388
10
20.2515353
20
-1.4476045
40
0.3979351
50
279.7829743
51
311.625622
0
ARC
8
DEFAULT_255_1_388
10
20.2176489
20
-1.2859358
40
0.5630417
50
269.7285092
51
280.3857694
0
ARC
8
DEFAULT_255_1_388
10
20.2106802
20
-1.2905759
40
0.5584119
50
256.6827433
51
270.4412869
0
ARC
8
DEFAULT_255_1_388
10
20.1725788
20
-1.4463302
40
0.3980715
50
229.4223821
51
256.8554507
0
ARC
8
DEFAULT_255_1_388
10
20.1259342
20
-1.4988317
40
0.3278564
50
181.8183354
51
229.6455015
0
ARC
8
DEFAULT_255_1_388
10
20.2428951
20
-1.4841175
40
0.4453611
50
179.9760419
51
183.2330638
0
ARC
8
DEFAULT_255_1_388
10
20.2235503
20
-1.4864219
40
0.2579652
50
179.4467996
51
196.2871626
0
ARC
8
DEFAULT_255_1_388
10
20.1686957
20
-1.5014291
40
0.2011057
50
196.5661293
51
227.7059371
0
ARC
8
DEFAULT_255_1_388
10
20.1871564
20
-1.4807845
40
0.2287994
50
227.7653015
51
257.8763321
0
ARC
8
DEFAULT_255_1_388
10
20.2124647
20
-1.3747039
40
0.3378385
50
257.4583525
51
270.4267406
0
ARC
8
DEFAULT_255_1_388
10
20.2175897
20
-1.342077
40
0.3704652
50
269.5965319
51
280.8788143
0
ARC
8
DEFAULT_255_1_388
10
20.2434125
20
-1.4710471
40
0.2389415
50
280.6347277
51
299.8594068
0
ARC
8
DEFAULT_255_1_388
10
20.2648895
20
-1.5118264
40
0.19289
50
300.3575552
51
314.5515667
0
ARC
8
DEFAULT_255_1_388
10
20.255557
20
-1.5049975
40
0.204312
50
315.0730962
51
345.0429362
0
ARC
8
DEFAULT_255_1_388
10
20.1517078
20
-1.4747461
40
0.31246
50
344.598526
51
357.9270698
0
ARC
8
DEFAULT_255_1_388
10
20.0507383
20
-1.4678295
40
0.4136265
50
357.4755098
51
0.0224936
0
ARC
8
DEFAULT_255_1_388
10
20.166026
20
-1.4650901
40
0.2983498
50
359.5051035
51
13.4236939
0
ARC
8
DEFAULT_255_1_388
10
20.263535
20
-1.4401363
40
0.1977186
50
12.9497905
51
48.7550905
0
ARC
8
DEFAULT_255_1_388
10
20.2430272
20
-1.4681627
40
0.2323321
50
49.509109
51
72.1832965
0
ARC
8
DEFAULT_255_1_388
10
20.202774
20
-1.5876368
40
0.358397
50
71.9008458
51
84.3555134
0
ARC
8
DEFAULT_255_1_388
10
20.1846135
20
-1.7408288
40
0.512641
50
84.019632
51
89.3326067
0
LINE
8
DEFAULT_255_1_388
10
-0.8865556
20
2.1312898
11
-0.5694045
21
1.6271009
0
LINE
8
DEFAULT_255_1_388
10
-0.5694045
20
1.6271009
11
-0.2540605
21
2.1312898
0
LINE
8
DEFAULT_255_1_388
10
-0.2540605
20
2.1312898
11
-0.0498549
21
2.1312898
0
LINE
8
DEFAULT_255_1_388
10
-0.0498549
20
2.1312898
11
-0.4654946
21
1.4789163
0
LINE
8
DEFAULT_255_1_388
10
-0.4654946
20
1.4789163
11
-0.0399157
21
0.8157
0
LINE
8
DEFAULT_255_1_388
10
-0.0399157
20
0.8157
11
-0.2459284
21
0.8157
0
LINE
8
DEFAULT_255_1_388
10
-0.2459284
20
0.8157
11
-0.5694045
21
1.3289246
0
LINE
8
DEFAULT_255_1_388
10
-0.5694045
20
1.3289246
11
-0.8946877
21
0.8157
0
LINE
8
DEFAULT_255_1_388
10
-0.8946877
20
0.8157
11
-1.0997968
21
0.8157
0
LINE
8
DEFAULT_255_1_388
10
-1.0997968
20
0.8157
11
-0.6733144
21
1.4789163
0
LINE
8
DEFAULT_255_1_388
10
-0.6733144
20
1.4789163
11
-1.0898576
21
2.1312898
0
LINE
8
DEFAULT_255_1_388
10
-1.0898576
20
2.1312898
11
-0.8865556
21
2.1312898
0
LINE
8
DEFAULT_255_1_388
10
0.6675752
20
2.1376148
11
0.6675752
21
0.8157
0
LINE
8
DEFAULT_255_1_388
10
0.6675752
20
0.8157
11
0.4995123
21
0.8157
0
LINE
8
DEFAULT_255_1_388
10
0.4995123
20
0.8157
11
0.4995123
21
1.929795
0
LINE
8
DEFAULT_255_1_388
10
0.4995123
20
1.929795
11
0.1624827
21
1.8060066
0
LINE
8
DEFAULT_255_1_388
10
0.1624827
20
1.8060066
11
0.1624827
21
1.9578055
0
LINE
8
DEFAULT_255_1_388
10
0.1624827
20
1.9578055
11
0.6413719
21
2.1376148
0
LINE
8
DEFAULT_255_1_388
10
0.6413719
20
2.1376148
11
0.6675752
21
2.1376148
0
LINE
8
DEFAULT_255_1_388
10
19.9011318
20
13.6021382
11
19.9011318
21
13.4657
0
LINE
8
DEFAULT_255_1_388
10
19.9011318
20
13.4657
11
19.0391313
21
13.4657
0
LINE
8
DEFAULT_255_1_388
10
19.0391313
20
13.4657
11
19.0391313
21
13.5858741
0
LINE
8
DEFAULT_255_1_388
10
19.0391313
20
13.5858741
11
19.4945278
21
14.0918702
0
LINE
8
DEFAULT_255_1_388
10
19.1809909
20
14.3936607
11
19.0138315
21
14.3936607
0
LINE
8
DEFAULT_255_1_388
10
19.5930163
20
13.984346
11
19.2406262
21
13.6021382
0
LINE
8
DEFAULT_255_1_388
10
19.2406262
20
13.6021382
11
19.9011318
21
13.6021382
0
ARC
8
DEFAULT_255_1_388
10
17.9769337
20
15.4338983
40
2.0258655
50
318.5132526
51
320.7829045
0
ARC
8
DEFAULT_255_1_388
10
18.5717294
20
14.9497929
40
1.2589638
50
320.7372878
51
323.9739031
0
ARC
8
DEFAULT_255_1_388
10
19.0126226
20
14.6303554
40
0.7145141
50
323.8962701
51
328.64194
0
ARC
8
DEFAULT_255_1_388
10
19.2428484
20
14.4883545
40
0.4440242
50
328.8294576
51
331.7891185
0
ARC
8
DEFAULT_255_1_388
10
19.3550804
20
14.4304374
40
0.3177517
50
331.4254512
51
352.9365785
0
ARC
8
DEFAULT_255_1_388
10
19.3703804
20
14.427005
40
0.3021496
50
353.2257659
51
0.0166158
0
ARC
8
DEFAULT_255_1_388
10
19.3940564
20
14.4295894
40
0.2784847
50
359.486299
51
15.9343185
0
ARC
8
DEFAULT_255_1_388
10
19.4510831
20
14.4449269
40
0.2194403
50
16.1712913
51
43.5286088
0
ARC
8
DEFAULT_255_1_388
10
19.4597776
20
14.4536191
40
0.2071504
50
43.4417391
51
83.1661095
0
ARC
8
DEFAULT_255_1_388
10
19.4446937
20
14.3707316
40
0.2912888
50
82.160179
51
90.1505708
0
ARC
8
DEFAULT_255_1_388
10
19.4411418
20
14.3103279
40
0.3517025
50
89.5460741
51
102.5418361
0
ARC
8
DEFAULT_255_1_388
10
19.4138138
20
14.4262933
40
0.2325748
50
102.1738499
51
129.206123
0
ARC
8
DEFAULT_255_1_388
10
19.4049592
20
14.4402664
40
0.2161591
50
129.72865
51
135.753947
0
ARC
8
DEFAULT_255_1_388
10
19.4186074
20
14.4293728
40
0.2335433
50
136.1757367
51
166.3673339
0
ARC
8
DEFAULT_255_1_388
10
19.5318762
20
14.3990148
40
0.3507873
50
165.9090694
51
178.8684636
0
ARC
8
DEFAULT_255_1_388
10
19.6294534
20
14.3937263
40
0.4484624
50
178.4391136
51
180.0083808
0
ARC
8
DEFAULT_255_1_388
10
19.4715235
20
14.3981197
40
0.4577138
50
163.2878482
51
180.5581842
0
ARC
8
DEFAULT_255_1_388
10
19.3813276
20
14.4229393
40
0.3641968
50
133.4540601
51
162.947111
0
ARC
8
DEFAULT_255_1_388
10
19.4014158
20
14.4015789
40
0.3935189
50
100.7869829
51
133.4382499
0
ARC
8
DEFAULT_255_1_388
10
19.4405403
20
14.2273399
40
0.5720313
50
89.660664
51
101.3702276
0
ARC
8
DEFAULT_255_1_388
10
19.4480012
20
14.2342263
40
0.5651495
50
78.2172678
51
90.412935
0
ARC
8
DEFAULT_255_1_388
10
19.4879478
20
14.4169511
40
0.378122
50
55.9269121
51
78.4888449
0
ARC
8
DEFAULT_255_1_388
10
19.5100193
20
14.4550187
40
0.3342379
50
47.929771
51
55.4049217
0
ARC
8
DEFAULT_255_1_388
10
19.5214723
20
14.4666618
40
0.3179217
50
4.334829
51
48.0560205
0
ARC
8
DEFAULT_255_1_388
10
19.3982525
20
14.4475487
40
0.442341
50
359.9251713
51
5.5971671
0
ARC
8
DEFAULT_255_1_388
10
19.446468
20
14.4538728
40
0.3941854
50
337.8914027
51
358.9967534
0
ARC
8
DEFAULT_255_1_388
10
19.141225
20
14.5716295
40
0.7213271
50
326.9132501
51
338.3508308
0
ARC
8
DEFAULT_255_1_388
10
18.6928362
20
14.8590105
40
1.2538973
50
319.6471833
51
327.0959558
0
ARC
8
DEFAULT_255_1_388
10
18.261502
20
15.214805
40
1.8129975
50
317.2588228
51
319.9045804
0
LINE
8
DEFAULT_255_1_388
10
20.7839143
20
14.7812898
11
20.7839143
21
13.907543
0
LINE
8
DEFAULT_255_1_388
10
20.7839143
20
13.907543
11
20.9664343
21
13.907543
0
LINE
8
DEFAULT_255_1_388
10
20.9664343
20
13.907543
11
20.9664343
21
13.7711048
0
LINE
8
DEFAULT_255_1_388
10
20.9664343
20
13.7711048
11
20.7839143
21
13.7711048
0
LINE
8
DEFAULT_255_1_388
10
20.7839143
20
13.7711048
11
20.7839143
21
13.4657
0
LINE
8
DEFAULT_255_1_388
10
20.7839143
20
13.4657
11
20.6158513
21
13.4657
0
LINE
8
DEFAULT_255_1_388
10
20.6158513
20
13.4657
11
20.6158513
21
13.7711048
0
LINE
8
DEFAULT_255_1_388
10
20.6158513
20
13.7711048
11
20.016788
21
13.7711048
0
LINE
8
DEFAULT_255_1_388
10
20.016788
20
13.7711048
11
20.016788
21
13.8695933
0
LINE
8
DEFAULT_255_1_388
10
20.016788
20
13.8695933
11
20.6059121
21
14.7812898
0
LINE
8
DEFAULT_255_1_388
10
20.6059121
20
14.7812898
11
20.7839143
21
14.7812898
0
LINE
8
DEFAULT_255_1_388
10
20.5959729
20
14.5165455
11
20.2065366
21
13.907543
0
LINE
8
DEFAULT_255_1_388
10
20.2065366
20
13.907543
11
20.6158513
21
13.907543
0
LINE
8
DEFAULT_255_1_388
10
20.6158513
20
13.907543
11
20.6158513
21
14.552688
0
LINE
8
DEFAULT_255_1_388
10
20.6158513
20
14.552688
11
20.5959729
21
14.5165455
0
LINE
8
DEFAULT_255_1_388
10
44.4520444
20
2.1312898
11
44.7691955
21
1.6271009
0
LINE
8
DEFAULT_255_1_388
10
44.7691955
20
1.6271009
11
45.0845395
21
2.1312898
0
LINE
8
DEFAULT_255_1_388
10
45.0845395
20
2.1312898
11
45.2887451
21
2.1312898
0
LINE
8
DEFAULT_255_1_388
10
45.2887451
20
2.1312898
11
44.8731054
21
1.4789163
0
LINE
8
DEFAULT_255_1_388
10
44.8731054
20
1.4789163
11
45.2986843
21
0.8157
0
LINE
8
DEFAULT_255_1_388
10
45.2986843
20
0.8157
11
45.0926716
21
0.8157
0
LINE
8
DEFAULT_255_1_388
10
45.0926716
20
0.8157
11
44.7691955
21
1.3289246
0
LINE
8
DEFAULT_255_1_388
10
44.7691955
20
1.3289246
11
44.4439123
21
0.8157
0
LINE
8
DEFAULT_255_1_388
10
44.4439123
20
0.8157
11
44.2388032
21
0.8157
0
LINE
8
DEFAULT_255_1_388
10
44.2388032
20
0.8157
11
44.6652856
21
1.4789163
0
LINE
8
DEFAULT_255_1_388
10
44.6652856
20
1.4789163
11
44.2487424
21
2.1312898
0
LINE
8
DEFAULT_255_1_388
10
44.2487424
20
2.1312898
11
44.4520444
21
2.1312898
0
LINE
8
DEFAULT_255_1_388
10
46.3188085
20
0.9521382
11
46.3188085
21
0.8157
0
LINE
8
DEFAULT_255_1_388
10
46.3188085
20
0.8157
11
45.4568081
21
0.8157
0
LINE
8
DEFAULT_255_1_388
10
45.4568081
20
0.8157
11
45.4568081
21
0.9358741
0
LINE
8
DEFAULT_255_1_388
10
45.4568081
20
0.9358741
11
45.9122045
21
1.4418702
0
LINE
8
DEFAULT_255_1_388
10
45.5986677
20
1.7436607
11
45.4315083
21
1.7436607
0
LINE
8
DEFAULT_255_1_388
10
46.0106931
20
1.334346
11
45.6583029
21
0.9521382
0
LINE
8
DEFAULT_255_1_388
10
45.6583029
20
0.9521382
11
46.3188085
21
0.9521382
0
ARC
8
DEFAULT_255_1_388
10
44.3946105
20
2.7838983
40
2.0258655
50
318.5132526
51
320.7829045
0
ARC
8
DEFAULT_255_1_388
10
44.9894062
20
2.2997929
40
1.2589638
50
320.7372878
51
323.9739031
0
ARC
8
DEFAULT_255_1_388
10
45.4302994
20
1.9803554
40
0.7145141
50
323.8962701
51
328.64194
0
ARC
8
DEFAULT_255_1_388
10
45.6605251
20
1.8383545
40
0.4440242
50
328.8294576
51
331.7891185
0
ARC
8
DEFAULT_255_1_388
10
45.7727571
20
1.7804374
40
0.3177517
50
331.4254512
51
352.9365785
0
ARC
8
DEFAULT_255_1_388
10
45.7880571
20
1.777005
40
0.3021496
50
353.2257659
51
0.0166158
0
ARC
8
DEFAULT_255_1_388
10
45.8117332
20
1.7795894
40
0.2784847
50
359.486299
51
15.9343185
0
ARC
8
DEFAULT_255_1_388
10
45.8687599
20
1.7949269
40
0.2194403
50
16.1712913
51
43.5286088
0
ARC
8
DEFAULT_255_1_388
10
45.8774543
20
1.8036191
40
0.2071504
50
43.4417391
51
83.1661095
0
ARC
8
DEFAULT_255_1_388
10
45.8623704
20
1.7207316
40
0.2912888
50
82.160179
51
90.1505708
0
ARC
8
DEFAULT_255_1_388
10
45.8588186
20
1.6603279
40
0.3517025
50
89.5460741
51
102.5418361
0
ARC
8
DEFAULT_255_1_388
10
45.8314906
20
1.7762933
40
0.2325748
50
102.1738499
51
129.206123
0
ARC
8
DEFAULT_255_1_388
10
45.8226359
20
1.7902664
40
0.2161591
50
129.72865
51
135.753947
0
ARC
8
DEFAULT_255_1_388
10
45.8362841
20
1.7793728
40
0.2335433
50
136.1757367
51
166.3673339
0
ARC
8
DEFAULT_255_1_388
10
45.949553
20
1.7490148
40
0.3507873
50
165.9090694
51
178.8684636
0
ARC
8
DEFAULT_255_1_388
10
46.0471301
20
1.7437263
40
0.4484624
50
178.4391136
51
180.0083808
0
ARC
8
DEFAULT_255_1_388
10
45.8892003
20
1.7481197
40
0.4577138
50
163.2878482
51
180.5581842
0
ARC
8
DEFAULT_255_1_388
10
45.7990044
20
1.7729393
40
0.3641968
50
133.4540601
51
162.947111
0
ARC
8
DEFAULT_255_1_388
10
45.8190926
20
1.7515789
40
0.3935189
50
100.7869829
51
133.4382499
0
ARC
8
DEFAULT_255_1_388
10
45.8582171
20
1.5773399
40
0.5720313
50
89.660664
51
101.3702276
0
ARC
8
DEFAULT_255_1_388
10
45.865678
20
1.5842263
40
0.5651495
50
78.2172678
51
90.412935
0
ARC
8
DEFAULT_255_1_388
10
45.9056245
20
1.7669511
40
0.378122
50
55.9269121
51
78.4888449
0
ARC
8
DEFAULT_255_1_388
10
45.9276961
20
1.8050187
40
0.3342379
50
47.929771
51
55.4049217
0
ARC
8
DEFAULT_255_1_388
10
45.9391491
20
1.8166618
40
0.3179217
50
4.334829
51
48.0560205
0
ARC
8
DEFAULT_255_1_388
10
45.8159293
20
1.7975487
40
0.442341
50
359.9251713
51
5.5971671
0
ARC
8
DEFAULT_255_1_388
10
45.8641447
20
1.8038728
40
0.3941854
50
337.8914027
51
358.9967534
0
ARC
8
DEFAULT_255_1_388
10
45.5589017
20
1.9216295
40
0.7213271
50
326.9132501
51
338.3508308
0
ARC
8
DEFAULT_255_1_388
10
45.1105129
20
2.2090105
40
1.2538973
50
319.6471833
51
327.0959558
0
ARC
8
DEFAULT_255_1_388
10
44.6791787
20
2.564805
40
1.8129975
50
317.2588228
51
319.9045804
0
ENDSEC
0
EOF