0
SECTION
2
HEADER
9
$MEASUREMENT
70
1
0
ENDSEC
0
SECTION
2
TABLES
0
TABLE
2
LTYPE
0
LTYPE
72
65
70
64
2
CONTINUOUS
3
______
73
0
40
0
0
ENDTAB
0
TABLE
2
LAYER
0
LAYER
2
DEFAULT_255_2_778
70
0
62
255
6
CONTINUOUS
0
LAYER
2
DEFAULT_255_1_234
70
0
62
255
6
CONTINUOUS
0
ENDTAB
0
ENDSEC
0
SECTION
2
ENTITIES
0
LINE
8
DEFAULT_255_2_778
10
6.0867067
20
14.4197749
11
10.0554067
21
14.4197749
0
LINE
8
DEFAULT_255_2_778
10
10.0554067
20
14.4197749
11
10.0554067
21
10.4510749
0
LINE
8
DEFAULT_255_2_778
10
10.0554067
20
10.4510749
11
6.0867067
21
10.4510749
0
LINE
8
DEFAULT_255_2_778
10
6.0867067
20
10.4510749
11
6.0867067
21
14.4197749
0
LINE
8
DEFAULT_255_2_778
10
36.5111067
20
14.4197749
11
40.4799067
21
14.4197749
0
LINE
8
DEFAULT_255_2_778
10
40.4799067
20
14.4197749
11
40.4799067
21
10.4510749
0
LINE
8
DEFAULT_255_2_778
10
40.4799067
20
10.4510749
11
36.5111067
21
10.4510749
0
LINE
8
DEFAULT_255_2_778
10
36.5111067
20
10.4510749
11
36.5111067
21
14.4197749
0
LINE
8
DEFAULT_255_2_778
10
12.6986503
20
10.4510499
11
36.5111503
21
10.4510499
0
LINE
8
DEFAULT_255_2_778
10
36.5111503
20
10.4510499
11
36.5111503
21
2.5135499
0
LINE
8
DEFAULT_255_2_778
10
36.5111503
20
2.5135499
11
12.6986503
21
2.5135499
0
LINE
8
DEFAULT_255_2_778
10
12.6986503
20
2.5135499
11
12.6986503
21
10.4510499
0
LINE
8
DEFAULT_255_2_778
10
20.6374501
20
10.4510499
11
20.6374501
21
2.5135499
0
LINE
8
DEFAULT_255_2_778
10
28.5749501
20
10.4510499
11
28.5749501
21
2.5135499
0
LINE
8
DEFAULT_255_2_778
10
31.2208417
20
2.5135499
11
31.2208417
21
10.4510499
0
LINE
8
DEFAULT_255_2_778
10
31.2208417
20
10.4510499
11
30.5593417
21
8.4666499
0
LINE
8
DEFAULT_255_2_778
10
30.5593417
20
8.4666499
11
31.8822417
21
8.4666499
0
LINE
8
DEFAULT_255_2_778
10
31.8822417
20
8.4666499
11
31.2208417
21
10.4510499
0
LINE
8
DEFAULT_255_2_778
10
33.8667
20
2.5135499
11
33.8667
21
10.4510499
0
LINE
8
DEFAULT_255_2_778
10
33.2052544
20
4.4979499
11
34.5281544
21
4.4979499
0
LINE
8
DEFAULT_255_2_778
10
34.5281544
20
4.4979499
11
33.8666544
21
2.5135499
0
LINE
8
DEFAULT_255_2_778
10
33.8666544
20
2.5135499
11
33.2052544
21
4.4979499
0
LINE
8
DEFAULT_255_2_778
10
15.3458544
20
10.4510499
11
17.9916544
21
2.5135499
0
LINE
8
DEFAULT_255_2_778
10
17.9916544
20
2.5135499
11
17.9916544
21
4.6302499
0
LINE
8
DEFAULT_255_2_778
10
17.9916544
20
4.6302499
11
16.6687544
21
4.1010499
0
LINE
8
DEFAULT_255_2_778
10
16.6687544
20
4.1010499
11
17.9916544
21
2.5135499
0
LINE
8
DEFAULT_255_2_778
10
15.3457834
20
2.5135499
11
17.9915834
21
10.4510499
0
LINE
8
DEFAULT_255_2_778
10
17.9915834
20
10.4510499
11
17.9915834
21
8.3343499
0
LINE
8
DEFAULT_255_2_778
10
17.9915834
20
8.3343499
11
16.8009834
21
8.8635499
0
LINE
8
DEFAULT_255_2_778
10
16.8009834
20
8.8635499
11
17.9915834
21
10.4510499
0
LINE
8
DEFAULT_255_2_778
10
22.6218417
20
7.8052166
11
23.9447417
21
7.8052166
0
LINE
8
DEFAULT_255_2_778
10
22.6218417
20
5.1594166
11
23.9447417
21
5.1594166
0
LINE
8
DEFAULT_255_2_778
10
23.2833542
20
7.8052164
11
23.2833542
21
15.7427164
0
LINE
8
DEFAULT_255_2_778
10
23.2833542
20
5.1594164
11
23.2833542
21
-2.7780836
0
LINE
8
DEFAULT_255_2_778
10
25.2677542
20
7.8052164
11
26.5906542
21
7.8052164
0
LINE
8
DEFAULT_255_2_778
10
25.2677542
20
5.1594164
11
26.5906542
21
5.1594164
0
LINE
8
DEFAULT_255_2_778
10
25.9292
20
7.8052164
11
25.9292
21
15.7427164
0
LINE
8
DEFAULT_255_2_778
10
25.9292
20
5.1594164
11
25.9292
21
-2.7780836
0
LINE
8
DEFAULT_255_2_778
10
39.1582834
20
5.6885
11
41.8040834
21
5.6885
0
LINE
8
DEFAULT_255_2_778
10
41.8040834
20
5.6885
11
41.8040834
21
2.5135
0
LINE
8
DEFAULT_255_2_778
10
41.8040834
20
2.5135
11
39.1582834
21
2.5135
0
LINE
8
DEFAULT_255_2_778
10
39.1582834
20
2.5135
11
39.1582834
21
5.6885
0
LINE
8
DEFAULT_255_2_778
10
39.819813
20
5.6885
11
41.142713
21
2.5135
0
LINE
8
DEFAULT_255_2_778
10
7.408313
20
5.6885
11
10.054113
21
5.6885
0
LINE
8
DEFAULT_255_2_778
10
10.054113
20
5.6885
11
10.054113
21
2.5135
0
LINE
8
DEFAULT_255_2_778
10
10.054113
20
2.5135
11
7.408313
21
2.5135
0
LINE
8
DEFAULT_255_2_778
10
7.408313
20
2.5135
11
7.408313
21
5.6885
0
LINE
8
DEFAULT_255_2_778
10
8.0697417
20
2.5135
11
9.3926417
21
5.6885
0
LINE
8
DEFAULT_255_2_778
10
10.0541188
20
6.7468166
11
10.3481188
21
8.3343166
0
LINE
8
DEFAULT_255_2_778
10
10.3481188
20
8.3343166
11
10.7891188
21
5.6885166
0
LINE
8
DEFAULT_255_2_778
10
10.7891188
20
5.6885166
11
11.2302188
21
8.3343166
0
LINE
8
DEFAULT_255_2_778
10
11.2302188
20
8.3343166
11
11.6712188
21
5.6885166
0
LINE
8
DEFAULT_255_2_778
10
11.6712188
20
5.6885166
11
12.1123188
21
8.3343166
0
LINE
8
DEFAULT_255_2_778
10
12.1123188
20
8.3343166
11
12.5534188
21
5.6885166
0
LINE
8
DEFAULT_255_2_778
10
12.5534188
20
5.6885166
11
12.7005188
21
6.7468166
0
LINE
8
DEFAULT_255_2_778
10
36.5125188
20
6.7468166
11
36.8065188
21
8.3343166
0
LINE
8
DEFAULT_255_2_778
10
36.8065188
20
8.3343166
11
37.2475188
21
5.6885166
0
LINE
8
DEFAULT_255_2_778
10
37.2475188
20
5.6885166
11
37.6886188
21
8.3343166
0
LINE
8
DEFAULT_255_2_778
10
37.6886188
20
8.3343166
11
38.1296188
21
5.6885166
0
LINE
8
DEFAULT_255_2_778
10
38.1296188
20
5.6885166
11
38.5707188
21
8.3343166
0
LINE
8
DEFAULT_255_2_778
10
38.5707188
20
8.3343166
11
39.0118188
21
5.6885166
0
LINE
8
DEFAULT_255_2_778
10
39.0118188
20
5.6885166
11
39.1589188
21
6.7468166
0
LINE
8
DEFAULT_255_2_778
10
12.6999503
20
11.7739665
11
36.5124503
21
11.7739665
0
LINE
8
DEFAULT_255_2_778
10
12.6999503
20
1.1906665
11
36.5124503
21
1.1906665
0
LINE
8
DEFAULT_255_2_778
10
39.2905838
20
1.5212853
11
41.8040838
21
9.1280853
0
LINE
8
DEFAULT_255_2_778
10
41.8040838
20
9.1280853
11
41.8040838
21
7.0113853
0
LINE
8
DEFAULT_255_2_778
10
41.8040838
20
7.0113853
11
40.6134838
21
7.5405853
0
LINE
8
DEFAULT_255_2_778
10
40.6134838
20
7.5405853
11
41.8040838
21
9.1280853
0
LINE
8
DEFAULT_255_2_778
10
7.4082838
20
9.1280853
11
7.4082838
21
7.0113853
0
LINE
8
DEFAULT_255_2_778
10
7.4082838
20
7.0113853
11
8.5988838
21
7.5405853
0
LINE
8
DEFAULT_255_2_778
10
8.5988838
20
7.5405853
11
7.4082838
21
9.1280853
0
LINE
8
DEFAULT_255_2_778
10
7.4082838
20
9.1280853
11
9.9217838
21
1.5212853
0
LINE
8
DEFAULT_255_2_778
10
36.5111834
20
5.6885
11
39.1569834
21
5.6885
0
LINE
8
DEFAULT_255_2_778
10
39.1569834
20
5.6885
11
39.1569834
21
2.5135
0
LINE
8
DEFAULT_255_2_778
10
39.1569834
20
2.5135
11
36.5111834
21
2.5135
0
LINE
8
DEFAULT_255_2_778
10
36.5111834
20
2.5135
11
36.5111834
21
5.6885
0
LINE
8
DEFAULT_255_2_778
10
39.1583417
20
5.6885
11
37.8354417
21
4.101
0
LINE
8
DEFAULT_255_2_778
10
37.8354417
20
4.101
11
39.1583417
21
2.5135
0
LINE
8
DEFAULT_255_2_778
10
10.0554834
20
5.6885
11
12.7012834
21
5.6885
0
LINE
8
DEFAULT_255_2_778
10
12.7012834
20
5.6885
11
12.7012834
21
2.5135
0
LINE
8
DEFAULT_255_2_778
10
12.7012834
20
2.5135
11
10.0554834
21
2.5135
0
LINE
8
DEFAULT_255_2_778
10
10.0554834
20
2.5135
11
10.0554834
21
5.6885
0
LINE
8
DEFAULT_255_2_778
10
10.0540667
20
5.6885248
11
11.3770667
21
4.1010248
0
LINE
8
DEFAULT_255_2_778
10
11.3770667
20
4.1010248
11
10.0540667
21
2.5135248
0
LINE
8
DEFAULT_255_2_778
10
6.0853667
20
10.4510248
11
10.0540667
21
14.4197248
0
LINE
8
DEFAULT_255_2_778
10
10.0541337
20
5.8208624
11
10.0541337
21
10.4510624
0
LINE
8
DEFAULT_255_2_778
10
36.5124337
20
10.4510624
11
36.5124337
21
11.7739624
0
LINE
8
DEFAULT_255_2_778
10
3.4396251
20
6.4822749
11
7.4083251
21
6.4822749
0
LINE
8
DEFAULT_255_2_778
10
7.4083251
20
6.4822749
11
7.4083251
21
2.5135749
0
LINE
8
DEFAULT_255_2_778
10
7.4083251
20
2.5135749
11
3.4396251
21
2.5135749
0
LINE
8
DEFAULT_255_2_778
10
3.4396251
20
2.5135749
11
3.4396251
21
6.4822749
0
LINE
8
DEFAULT_255_2_778
10
5.1593834
20
5.0271166
11
4.1010834
21
4.4979166
0
LINE
8
DEFAULT_255_2_778
10
4.1010834
20
4.4979166
11
5.1593834
21
3.9687166
0
LINE
8
DEFAULT_255_2_778
10
6.7468834
20
4.7625166
11
6.7468834
21
5.8208166
0
LINE
8
DEFAULT_255_2_778
10
6.7468834
20
5.8208166
11
5.6885834
21
5.3046166
0
LINE
8
DEFAULT_255_2_778
10
6.7468834
20
4.2333166
11
6.7468834
21
3.1750166
0
LINE
8
DEFAULT_255_2_778
10
6.7468834
20
3.1750166
11
5.6885834
21
3.6912166
0
ARC
8
DEFAULT_255_2_778
10
7.1495414
20
13.5896537
40
0.4073919
50
88.5528255
51
142.8259235
0
ARC
8
DEFAULT_255_2_778
10
7.1729348
20
13.592487
40
0.4046409
50
63.9031946
51
91.8558913
0
ARC
8
DEFAULT_255_2_778
10
7.2044619
20
13.6927375
40
0.3011563
50
10.7269932
51
60.898456
0
ARC
8
DEFAULT_255_2_778
10
6.8603605
20
13.5995091
40
0.6571749
50
359.7738848
51
13.1298035
0
ARC
8
DEFAULT_255_2_778
10
7.0141864
20
13.6075539
40
0.3121926
50
358.2308405
51
24.9439247
0
ARC
8
DEFAULT_255_2_778
10
7.1479676
20
13.6627009
40
0.1677558
50
27.1360566
51
42.8626846
0
ARC
8
DEFAULT_255_2_778
10
7.1293663
20
13.6295068
40
0.2043042
50
46.13929
51
89.911077
0
ARC
8
DEFAULT_255_2_778
10
7.1023812
20
13.4224598
40
0.4122562
50
86.2027446
51
90.0626808
0
ARC
8
DEFAULT_255_2_778
10
7.0964231
20
13.559682
40
0.2750888
50
88.8528887
51
125.0021374
0
ARC
8
DEFAULT_255_2_778
10
7.1343103
20
13.5093005
40
0.3380969
50
125.364017
51
154.5073841
0
LINE
8
DEFAULT_255_2_778
10
6.6378302
20
13.9763156
11
6.8188302
21
13.9763156
0
LINE
8
DEFAULT_255_2_778
10
6.8188302
20
13.9763156
11
6.8249302
21
13.8358156
0
LINE
8
DEFAULT_255_2_778
10
7.5175302
20
13.5969156
11
7.5175302
21
12.8579156
0
LINE
8
DEFAULT_255_2_778
10
7.5175302
20
12.8579156
11
7.3262302
21
12.8579156
0
LINE
8
DEFAULT_255_2_778
10
7.3262302
20
12.8579156
11
7.3262302
21
13.5979156
0
LINE
8
DEFAULT_255_2_778
10
6.8291302
20
13.6548156
11
6.8291302
21
12.8579156
0
LINE
8
DEFAULT_255_2_778
10
6.8291302
20
12.8579156
11
6.6378302
21
12.8579156
0
LINE
8
DEFAULT_255_2_778
10
6.6378302
20
12.8579156
11
6.6378302
21
13.9763156
0
LINE
8
DEFAULT_255_2_778
10
6.6378302
20
13.9763156
11
6.6378302
21
13.9763156
0
ARC
8
DEFAULT_255_2_778
10
9.2325032
20
11.2043879
40
0.3810325
50
290.458391
51
324.4939681
0
ARC
8
DEFAULT_255_2_778
10
9.1179821
20
11.507438
40
0.7049977
50
269.6039349
51
290.5700281
0
ARC
8
DEFAULT_255_2_778
10
9.1013956
20
11.8024144
40
1.0000258
50
269.9993591
51
270.671112
0
ARC
8
DEFAULT_255_2_778
10
9.0920547
20
11.3152531
40
0.5129495
50
239.3665427
51
271.0421726
0
ARC
8
DEFAULT_255_2_778
10
9.0777508
20
11.2797756
40
0.4751696
50
205.2226198
51
238.6708262
0
ARC
8
DEFAULT_255_2_778
10
9.2856146
20
11.3756156
40
0.7040588
50
179.8248867
51
205.0699672
0
ARC
8
DEFAULT_255_2_778
10
9.5397025
20
11.3936991
40
0.9582759
50
180.6284469
51
180.9526064
0
ARC
8
DEFAULT_255_2_778
10
9.4543421
20
11.504589
40
0.8729501
50
164.4511056
51
180.8336178
0
ARC
8
DEFAULT_255_2_778
10
9.1094793
20
11.5998633
40
0.5151698
50
140.3214955
51
164.3780767
0
ARC
8
DEFAULT_255_2_778
10
9.050039
20
11.6369232
40
0.4458601
50
90.7454341
51
139.1097647
0
ARC
8
DEFAULT_255_2_778
10
9.0822446
20
11.3908658
40
0.6929228
50
89.9719002
51
93.1441942
0
ARC
8
DEFAULT_255_2_778
10
9.0960632
20
11.5542253
40
0.5297347
50
65.1840151
51
91.4580141
0
ARC
8
DEFAULT_255_2_778
10
9.1478755
20
11.6864618
40
0.3880554
50
50.0825201
51
63.9329858
0
ARC
8
DEFAULT_255_2_778
10
9.1166723
20
11.6623654
40
0.4266434
50
7.8583385
51
48.9450253
0
ARC
8
DEFAULT_255_2_778
10
8.9066514
20
11.6091252
40
0.6424206
50
8.2122179
51
10.0015882
0
ARC
8
DEFAULT_255_2_778
10
9.05897
20
11.6548852
40
0.3222153
50
8.208289
51
41.9343315
0
ARC
8
DEFAULT_255_2_778
10
9.106016
20
11.6713298
40
0.2768946
50
45.9117896
51
90.7431142
0
ARC
8
DEFAULT_255_2_778
10
9.0832425
20
11.4735137
40
0.4750748
50
87.6859094
51
90.0190676
0
ARC
8
DEFAULT_255_2_778
10
9.0656279
20
11.6581109
40
0.2910017
50
86.5609018
51
143.2096527
0
ARC
8
DEFAULT_255_2_778
10
9.195667
20
11.5812292
40
0.4414861
50
145.3267796
51
171.4798537
0
ARC
8
DEFAULT_255_2_778
10
9.6205749
20
11.4994968
40
0.8739968
50
170.3078104
51
180.2168768
0
ARC
8
DEFAULT_255_2_778
10
9.3848139
20
11.3813988
40
0.6383596
50
178.8430073
51
199.5223029
0
ARC
8
DEFAULT_255_2_778
10
9.1686836
20
11.3113022
40
0.4112758
50
200.3802457
51
217.542984
0
ARC
8
DEFAULT_255_2_778
10
9.0912986
20
11.2478921
40
0.3112939
50
216.9682419
51
272.0040173
0
ARC
8
DEFAULT_255_2_778
10
9.1118675
20
11.5045351
40
0.5678291
50
269.0228955
51
285.5493407
0
ARC
8
DEFAULT_255_2_778
10
9.1958646
20
11.2005002
40
0.2524056
50
285.6808413
51
316.5103022
0
LINE
8
DEFAULT_255_2_778
10
9.5426844
20
11.4405885
11
9.5426844
21
10.9830885
0
LINE
8
DEFAULT_255_2_778
10
8.5814844
20
11.3831885
11
8.5814844
21
11.4918885
0
LINE
8
DEFAULT_255_2_778
10
9.5424844
20
11.7008885
11
9.3778844
21
11.7008885
0
LINE
8
DEFAULT_255_2_778
10
8.7465844
20
11.4961885
11
8.7465844
21
11.3942885
0
LINE
8
DEFAULT_255_2_778
10
9.3789844
20
11.0267885
11
9.3789844
21
11.3069885
0
LINE
8
DEFAULT_255_2_778
10
9.3789844
20
11.3069885
11
9.0902844
21
11.3069885
0
LINE
8
DEFAULT_255_2_778
10
9.0902844
20
11.3069885
11
9.0902844
21
11.4405885
0
LINE
8
DEFAULT_255_2_778
10
9.0902844
20
11.4405885
11
9.5426844
21
11.4405885
0
LINE
8
DEFAULT_255_2_778
10
9.5426844
20
11.4405885
11
9.5426844
21
11.4405885
0
LINE
8
DEFAULT_255_2_778
10
36.5125251
20
10.4510749
11
40.4812251
21
14.4197749
0
ARC
8
DEFAULT_255_2_778
10
37.5767771
20
13.5893779
40
0.4076666
50
88.5588215
51
142.8065642
0
ARC
8
DEFAULT_255_2_778
10
37.6001373
20
13.5928202
40
0.4043079
50
63.8921909
51
91.8577664
0
ARC
8
DEFAULT_255_2_778
10
37.6316104
20
13.6929614
40
0.3009496
50
10.6910721
51
60.8815264
0
ARC
8
DEFAULT_255_2_778
10
37.2872065
20
13.5998419
40
0.6572303
50
359.7448959
51
13.0988913
0
ARC
8
DEFAULT_255_2_778
10
37.4410864
20
13.6075539
40
0.3121926
50
358.2308405
51
24.9439247
0
ARC
8
DEFAULT_255_2_778
10
37.5748676
20
13.6627009
40
0.1677558
50
27.1360566
51
42.8626846
0
ARC
8
DEFAULT_255_2_778
10
37.5562663
20
13.6295068
40
0.2043042
50
46.13929
51
89.911077
0
ARC
8
DEFAULT_255_2_778
10
37.5292812
20
13.4224598
40
0.4122562
50
86.2027446
51
90.0626808
0
ARC
8
DEFAULT_255_2_778
10
37.5233231
20
13.559682
40
0.2750888
50
88.8528887
51
125.0021374
0
ARC
8
DEFAULT_255_2_778
10
37.5612103
20
13.5093005
40
0.3380969
50
125.364017
51
154.5073841
0
LINE
8
DEFAULT_255_2_778
10
37.0650302
20
13.9763156
11
37.2459302
21
13.9763156
0
LINE
8
DEFAULT_255_2_778
10
37.2459302
20
13.9763156
11
37.2520302
21
13.8358156
0
LINE
8
DEFAULT_255_2_778
10
37.9444302
20
13.5969156
11
37.9444302
21
12.8579156
0
LINE
8
DEFAULT_255_2_778
10
37.9444302
20
12.8579156
11
37.7531302
21
12.8579156
0
LINE
8
DEFAULT_255_2_778
10
37.7531302
20
12.8579156
11
37.7531302
21
13.5979156
0
LINE
8
DEFAULT_255_2_778
10
37.2560302
20
13.6548156
11
37.2560302
21
12.8579156
0
LINE
8
DEFAULT_255_2_778
10
37.2560302
20
12.8579156
11
37.0647302
21
12.8579156
0
LINE
8
DEFAULT_255_2_778
10
37.0647302
20
12.8579156
11
37.0647302
21
13.9763156
0
LINE
8
DEFAULT_255_2_778
10
37.0647302
20
13.9763156
11
37.0650302
21
13.9763156
0
ARC
8
DEFAULT_255_2_778
10
39.6596032
20
11.2043879
40
0.3810325
50
290.458391
51
324.4939681
0
ARC
8
DEFAULT_255_2_778
10
39.5450821
20
11.507438
40
0.7049977
50
269.6039349
51
290.5700281
0
ARC
8
DEFAULT_255_2_778
10
39.5284956
20
11.8024144
40
1.0000258
50
269.9993591
51
270.671112
0
ARC
8
DEFAULT_255_2_778
10
39.5191547
20
11.3152531
40
0.5129495
50
239.3665427
51
271.0421726
0
ARC
8
DEFAULT_255_2_778
10
39.5048508
20
11.2797756
40
0.4751696
50
205.2226198
51
238.6708262
0
ARC
8
DEFAULT_255_2_778
10
39.7127146
20
11.3756156
40
0.7040588
50
179.8248867
51
205.0699672
0
ARC
8
DEFAULT_255_2_778
10
39.9668025
20
11.3936991
40
0.9582759
50
180.6284469
51
180.9526064
0
ARC
8
DEFAULT_255_2_778
10
39.8814421
20
11.504589
40
0.8729501
50
164.4511056
51
180.8336178
0
ARC
8
DEFAULT_255_2_778
10
39.5365793
20
11.5998633
40
0.5151698
50
140.3214955
51
164.3780767
0
ARC
8
DEFAULT_255_2_778
10
39.477139
20
11.6369232
40
0.4458601
50
90.7454341
51
139.1097647
0
ARC
8
DEFAULT_255_2_778
10
39.5093446
20
11.3908658
40
0.6929228
50
89.9719002
51
93.1441942
0
ARC
8
DEFAULT_255_2_778
10
39.5231632
20
11.5542253
40
0.5297347
50
65.1840151
51
91.4580141
0
ARC
8
DEFAULT_255_2_778
10
39.5749755
20
11.6864618
40
0.3880554
50
50.0825201
51
63.9329858
0
ARC
8
DEFAULT_255_2_778
10
39.5437723
20
11.6623654
40
0.4266434
50
7.8583385
51
48.9450253
0
ARC
8
DEFAULT_255_2_778
10
39.3337514
20
11.6091252
40
0.6424206
50
8.2122179
51
10.0015882
0
ARC
8
DEFAULT_255_2_778
10
39.48607
20
11.6548852
40
0.3222153
50
8.208289
51
41.9343315
0
ARC
8
DEFAULT_255_2_778
10
39.533116
20
11.6713298
40
0.2768946
50
45.9117896
51
90.7431142
0
ARC
8
DEFAULT_255_2_778
10
39.5103425
20
11.4735137
40
0.4750748
50
87.6859094
51
90.0190676
0
ARC
8
DEFAULT_255_2_778
10
39.4927279
20
11.6581109
40
0.2910017
50
86.5609018
51
143.2096527
0
ARC
8
DEFAULT_255_2_778
10
39.622767
20
11.5812292
40
0.4414861
50
145.3267796
51
171.4798537
0
ARC
8
DEFAULT_255_2_778
10
40.0476749
20
11.4994968
40
0.8739968
50
170.3078104
51
180.2168768
0
ARC
8
DEFAULT_255_2_778
10
39.8119139
20
11.3813988
40
0.6383596
50
178.8430073
51
199.5223029
0
ARC
8
DEFAULT_255_2_778
10
39.5957836
20
11.3113022
40
0.4112758
50
200.3802457
51
217.542984
0
ARC
8
DEFAULT_255_2_778
10
39.5183986
20
11.2478921
40
0.3112939
50
216.9682419
51
272.0040173
0
ARC
8
DEFAULT_255_2_778
10
39.5389675
20
11.5045351
40
0.5678291
50
269.0228955
51
285.5493407
0
ARC
8
DEFAULT_255_2_778
10
39.6229646
20
11.2005002
40
0.2524056
50
285.6808413
51
316.5103022
0
LINE
8
DEFAULT_255_2_778
10
39.9697844
20
11.4405885
11
39.9697844
21
10.9830885
0
LINE
8
DEFAULT_255_2_778
10
39.0085844
20
11.3831885
11
39.0085844
21
11.4918885
0
LINE
8
DEFAULT_255_2_778
10
39.9695844
20
11.7008885
11
39.8049844
21
11.7008885
0
LINE
8
DEFAULT_255_2_778
10
39.1736844
20
11.4961885
11
39.1736844
21
11.3942885
0
LINE
8
DEFAULT_255_2_778
10
39.8060844
20
11.0267885
11
39.8060844
21
11.3069885
0
LINE
8
DEFAULT_255_2_778
10
39.8060844
20
11.3069885
11
39.5173844
21
11.3069885
0
LINE
8
DEFAULT_255_2_778
10
39.5173844
20
11.3069885
11
39.5173844
21
11.4405885
0
LINE
8
DEFAULT_255_2_778
10
39.5173844
20
11.4405885
11
39.9697844
21
11.4405885
0
LINE
8
DEFAULT_255_2_778
10
39.9697844
20
11.4405885
11
39.9697844
21
11.4405885
0
LINE
8
DEFAULT_255_1_234
10
20.8365137
20
-0.6674567
11
20.8365137
21
-1.8425
0
LINE
8
DEFAULT_255_1_234
10
20.8365137
20
-1.8425
11
20.6871234
21
-1.8425
0
LINE
8
DEFAULT_255_1_234
10
20.6871234
20
-1.8425
11
20.6871234
21
-0.8521867
0
LINE
8
DEFAULT_255_1_234
10
20.6871234
20
-0.8521867
11
20.3875396
21
-0.9622215
0
LINE
8
DEFAULT_255_1_234
10
20.3875396
20
-0.9622215
11
20.3875396
21
-0.8272883
0
LINE
8
DEFAULT_255_1_234
10
20.3875396
20
-0.8272883
11
20.8132217
21
-0.6674567
0
LINE
8
DEFAULT_255_1_234
10
20.8132217
20
-0.6674567
11
20.8365137
21
-0.6674567
0
LINE
8
DEFAULT_255_1_234
10
21.4878877
20
-1.3067831
11
21.4878877
21
-1.1855038
0
LINE
8
DEFAULT_255_1_234
10
21.4878877
20
-1.1855038
11
21.5995289
21
-1.1855038
0
LINE
8
DEFAULT_255_1_234
10
21.4091767
20
-0.9798913
11
21.2605895
21
-0.9798913
0
LINE
8
DEFAULT_255_1_234
10
21.2501482
20
-1.5340812
11
21.3995386
21
-1.5340812
0
LINE
8
DEFAULT_255_1_234
10
21.5995289
20
-1.3067831
11
21.4878877
21
-1.3067831
0
ARC
8
DEFAULT_255_1_234
10
21.5966155
20
-0.8462287
40
0.3392876
50
270.4919872
51
281.8951556
0
ARC
8
DEFAULT_255_1_234
10
21.6207417
20
-0.9564298
40
0.2264817
50
281.6691735
51
301.2943132
0
ARC
8
DEFAULT_255_1_234
10
21.6377627
20
-0.9875696
40
0.1910381
50
301.7833094
51
311.7545298
0
ARC
8
DEFAULT_255_1_234
10
21.6469203
20
-0.9977252
40
0.1773635
50
311.7323931
51
354.2802411
0
ARC
8
DEFAULT_255_1_234
10
21.5742828
20
-0.9852278
40
0.2509385
50
353.0937916
51
0.1181479
0
ARC
8
DEFAULT_255_1_234
10
21.5281613
20
-0.9804614
40
0.2970898
50
359.1805295
51
15.0453146
0
ARC
8
DEFAULT_255_1_234
10
21.662745
20
-0.9412008
40
0.1569564
50
13.9577229
51
77.6713066
0
ARC
8
DEFAULT_255_1_234
10
21.6240979
20
-1.0797051
40
0.3006298
50
76.1116566
51
90.7026153
0
ARC
8
DEFAULT_255_1_234
10
21.6181817
20
-1.0523455
40
0.2732568
50
89.5324876
51
103.531937
0
ARC
8
DEFAULT_255_1_234
10
21.5981261
20
-0.9724116
40
0.1908508
50
103.2931773
51
133.5619022
0
ARC
8
DEFAULT_255_1_234
10
21.593675
20
-0.9664625
40
0.1834746
50
133.8349307
51
173.5344437
0
ARC
8
DEFAULT_255_1_234
10
21.6659793
20
-0.9792787
40
0.2568033
50
172.5096846
51
180.1366907
0
ARC
8
DEFAULT_255_1_234
10
21.5708687
20
-0.9758378
40
0.3103056
50
155.3484492
51
180.7484736
0
ARC
8
DEFAULT_255_1_234
10
21.5659776
20
-0.9787154
40
0.3070957
50
131.5744599
51
154.4798489
0
ARC
8
DEFAULT_255_1_234
10
21.5972923
20
-1.010369
40
0.3515643
50
96.9875458
51
131.9690667
0
ARC
8
DEFAULT_255_1_234
10
21.6192403
20
-1.1349364
40
0.4779224
50
89.8596053
51
97.7825159
0
ARC
8
DEFAULT_255_1_234
10
21.6240466
20
-1.1611384
40
0.5041361
50
78.3655447
51
90.4131539
0
ARC
8
DEFAULT_255_1_234
10
21.6598384
20
-0.9952113
40
0.3344039
50
56.6229102
51
78.638727
0
ARC
8
DEFAULT_255_1_234
10
21.6813328
20
-0.9576195
40
0.2912001
50
47.0253525
51
56.0854072
0
ARC
8
DEFAULT_255_1_234
10
21.6833108
20
-0.9536777
40
0.2869704
50
10.9208013
51
46.7778124
0
ARC
8
DEFAULT_255_1_234
10
21.5469174
20
-0.9852143
40
0.426899
50
359.6364486
51
11.6087304
0
ARC
8
DEFAULT_255_1_234
10
21.7304018
20
-0.9867248
40
0.243409
50
332.3549906
51
359.7179418
0
ARC
8
DEFAULT_255_1_234
10
21.665362
20
-0.9558858
40
0.3153459
50
325.2333722
51
332.8745602
0
ARC
8
DEFAULT_255_1_234
10
21.6806244
20
-0.9665172
40
0.2967456
50
292.9802137
51
325.2392345
0
ARC
8
DEFAULT_255_1_234
10
21.6531617
20
-0.9131137
40
0.3566604
50
292.5402179
51
293.6924929
0
ARC
8
DEFAULT_255_1_234
10
21.6924213
20
-1.5585909
40
0.3307468
50
57.6435486
51
72.8625112
0
ARC
8
DEFAULT_255_1_234
10
21.7278713
20
-1.5011451
40
0.2632492
50
36.7248896
51
57.4697979
0
ARC
8
DEFAULT_255_1_234
10
21.7267346
20
-1.499878
40
0.2634081
50
8.0545065
51
36.356114
0
ARC
8
DEFAULT_255_1_234
10
21.6404531
20
-1.5153826
40
0.3510261
50
359.8320645
51
8.5869982
0
ARC
8
DEFAULT_255_1_234
10
21.6029307
20
-1.5201899
40
0.3885653
50
343.9829931
51
0.5571613
0
ARC
8
DEFAULT_255_1_234
10
21.6915504
20
-1.5444562
40
0.2966924
50
311.6359546
51
343.7651759
0
ARC
8
DEFAULT_255_1_234
10
21.6537074
20
-1.5017898
40
0.3537231
50
279.7829875
51
311.6255694
0
ARC
8
DEFAULT_255_1_234
10
21.623585
20
-1.358072
40
0.5004971
50
269.7286406
51
280.3856417
0
ARC
8
DEFAULT_255_1_234
10
21.6173922
20
-1.3622004
40
0.4963778
50
256.6828919
51
270.4412052
0
ARC
8
DEFAULT_255_1_234
10
21.5835218
20
-1.5006606
40
0.3538406
50
229.4223008
51
256.8556159
0
ARC
8
DEFAULT_255_1_234
10
21.5420611
20
-1.5473264
40
0.2914296
50
181.818294
51
229.6455059
0
ARC
8
DEFAULT_255_1_234
10
21.6460567
20
-1.5342504
40
0.3959084
50
179.9755256
51
183.2323064
0
ARC
8
DEFAULT_255_1_234
10
21.6288313
20
-1.5362963
40
0.2293034
50
179.4465117
51
196.2869258
0
ARC
8
DEFAULT_255_1_234
10
21.5800721
20
-1.5496349
40
0.1787621
50
196.5661473
51
227.705904
0
ARC
8
DEFAULT_255_1_234
10
21.5964816
20
-1.5312845
40
0.2033784
50
227.7652068
51
257.8762805
0
ARC
8
DEFAULT_255_1_234
10
21.6189786
20
-1.4369844
40
0.3003081
50
257.4584385
51
270.426602
0
ARC
8
DEFAULT_255_1_234
10
21.6235352
20
-1.4080004
40
0.329292
50
269.5962073
51
280.8789248
0
ARC
8
DEFAULT_255_1_234
10
21.6464881
20
-1.5226315
40
0.2123908
50
280.6346389
51
299.8595945
0
ARC
8
DEFAULT_255_1_234
10
21.6655788
20
-1.5588788
40
0.171457
50
300.3576302
51
314.5517981
0
ARC
8
DEFAULT_255_1_234
10
21.6572848
20
-1.5528081
40
0.1816095
50
315.0728369
51
345.0431014
0
ARC
8
DEFAULT_255_1_234
10
21.5649662
20
-1.5259159
40
0.2777492
50
344.5986631
51
357.9269593
0
ARC
8
DEFAULT_255_1_234
10
21.4753989
20
-1.5197724
40
0.3674917
50
357.4748886
51
0.0231117
0
ARC
8
DEFAULT_255_1_234
10
21.5777098
20
-1.5173321
40
0.2651907
50
359.5047933
51
13.4239635
0
ARC
8
DEFAULT_255_1_234
10
21.6643741
20
-1.4951522
40
0.1757509
50
12.9498199
51
48.7551375
0
ARC
8
DEFAULT_255_1_234
10
21.6461475
20
-1.52006
40
0.2065134
50
49.5088623
51
72.1836453
0
ARC
8
DEFAULT_255_1_234
10
21.6103628
20
-1.6262709
40
0.3185836
50
71.9010081
51
84.3554254
0
ARC
8
DEFAULT_255_1_234
10
21.594226
20
-1.7623674
40
0.4556151
50
84.0193428
51
89.333121
0
LINE
8
DEFAULT_255_1_234
10
21.3178119
20
13.5753792
11
21.3178119
21
13.4541
0
LINE
8
DEFAULT_255_1_234
10
21.3178119
20
13.4541
11
20.551584
21
13.4541
0
LINE
8
DEFAULT_255_1_234
10
20.551584
20
13.4541
11
20.551584
21
13.5609221
0
LINE
8
DEFAULT_255_1_234
10
20.551584
20
13.5609221
11
20.9563836
21
14.0106995
0
LINE
8
DEFAULT_255_1_234
10
20.6776823
20
14.2789595
11
20.5290952
21
14.2789595
0
LINE
8
DEFAULT_255_1_234
10
21.0439296
20
13.9151218
11
20.7306918
21
13.5753792
0
LINE
8
DEFAULT_255_1_234
10
20.7306918
20
13.5753792
11
21.3178119
21
13.5753792
0
ARC
8
DEFAULT_255_1_234
10
19.607367
20
15.2036527
40
1.8008286
50
318.5132453
51
320.7828378
0
ARC
8
DEFAULT_255_1_234
10
20.1360644
20
14.7733426
40
1.1191493
50
320.7372736
51
323.9737074
0
ARC
8
DEFAULT_255_1_234
10
20.5280501
20
14.4893361
40
0.6350923
50
323.8961724
51
328.6421089
0
ARC
8
DEFAULT_255_1_234
10
20.7327096
20
14.3631031
40
0.3946393
50
328.8299013
51
331.789948
0
ARC
8
DEFAULT_255_1_234
10
20.8324274
20
14.3116509
40
0.2824501
50
331.4255242
51
352.9364833
0
ARC
8
DEFAULT_255_1_234
10
20.8460775
20
14.3085976
40
0.2685315
50
353.2248685
51
0.0169286
0
ARC
8
DEFAULT_255_1_234
10
20.8670652
20
14.310895
40
0.2475536
50
359.4866256
51
15.9339782
0
ARC
8
DEFAULT_255_1_234
10
20.9177637
20
14.3245286
40
0.1950618
50
16.1714718
51
43.5284424
0
ARC
8
DEFAULT_255_1_234
10
20.9254946
20
14.3322573
40
0.184134
50
43.4415429
51
83.1661404
0
ARC
8
DEFAULT_255_1_234
10
20.9120864
20
14.2585771
40
0.258926
50
82.160215
51
90.1505798
0
ARC
8
DEFAULT_255_1_234
10
20.9089291
20
14.2048865
40
0.3126255
50
89.5460705
51
102.5418777
0
ARC
8
DEFAULT_255_1_234
10
20.8846377
20
14.3079665
40
0.2067346
50
102.1739365
51
129.2061916
0
ARC
8
DEFAULT_255_1_234
10
20.8767449
20
14.3204094
40
0.1921118
50
129.7279328
51
135.7542026
0
ARC
8
DEFAULT_255_1_234
10
20.8888977
20
14.3107045
40
0.2075944
50
136.175737
51
166.3674722
0
ARC
8
DEFAULT_255_1_234
10
20.9895896
20
14.2837182
40
0.3118201
50
165.9092917
51
178.8683903
0
ARC
8
DEFAULT_255_1_234
10
21.0760757
20
14.2790179
40
0.3983935
50
178.438168
51
180.0083905
0
ARC
8
DEFAULT_255_1_234
10
20.9359359
20
14.2829231
40
0.4068601
50
163.2878735
51
180.5581814
0
ARC
8
DEFAULT_255_1_234
10
20.8557621
20
14.304984
40
0.3237344
50
133.454115
51
162.9470031
0
ARC
8
DEFAULT_255_1_234
10
20.8736162
20
14.286
40
0.349795
50
100.7869394
51
133.4384016
0
ARC
8
DEFAULT_255_1_234
10
20.9083934
20
14.1311319
40
0.5084616
50
89.6605301
51
101.3704185
0
ARC
8
DEFAULT_255_1_234
10
20.9150273
20
14.1372496
40
0.502348
50
78.2171172
51
90.4130393
0
ARC
8
DEFAULT_255_1_234
10
20.9505351
20
14.2996637
40
0.3361092
50
55.9268222
51
78.4888551
0
ARC
8
DEFAULT_255_1_234
10
20.9701791
20
14.3335324
40
0.2970617
50
47.9292255
51
55.4054003
0
ARC
8
DEFAULT_255_1_234
10
20.9803352
20
14.3438502
40
0.2825983
50
4.3347696
51
48.0560701
0
ARC
8
DEFAULT_255_1_234
10
20.8707745
20
14.3268601
40
0.393225
50
359.925209
51
5.5967654
0
ARC
8
DEFAULT_255_1_234
10
20.9136637
20
14.3324816
40
0.3503892
50
337.8914096
51
358.9967724
0
ARC
8
DEFAULT_255_1_234
10
20.6423049
20
14.4371706
40
0.6412172
50
326.9135351
51
338.3505194
0
ARC
8
DEFAULT_255_1_234
10
20.2437353
20
14.6926284
40
1.1146189
50
319.6472867
51
327.095818
0
ARC
8
DEFAULT_255_1_234
10
19.8604356
20
15.0088
40
1.6114559
50
317.2586784
51
319.9046139
0
LINE
8
DEFAULT_255_1_234
10
22.1025127
20
14.6235211
11
22.1025127
21
13.846852
0
LINE
8
DEFAULT_255_1_234
10
22.1025127
20
13.846852
11
22.2647538
21
13.846852
0
LINE
8
DEFAULT_255_1_234
10
22.2647538
20
13.846852
11
22.2647538
21
13.7255728
0
LINE
8
DEFAULT_255_1_234
10
22.2647538
20
13.7255728
11
22.1025127
21
13.7255728
0
LINE
8
DEFAULT_255_1_234
10
22.1025127
20
13.7255728
11
22.1025127
21
13.4541
0
LINE
8
DEFAULT_255_1_234
10
22.1025127
20
13.4541
11
21.9531224
21
13.4541
0
LINE
8
DEFAULT_255_1_234
10
21.9531224
20
13.4541
11
21.9531224
21
13.7255728
0
LINE
8
DEFAULT_255_1_234
10
21.9531224
20
13.7255728
11
21.4206181
21
13.7255728
0
LINE
8
DEFAULT_255_1_234
10
21.4206181
20
13.7255728
11
21.4206181
21
13.8131187
0
LINE
8
DEFAULT_255_1_234
10
21.4206181
20
13.8131187
11
21.9442875
21
14.6235211
0
LINE
8
DEFAULT_255_1_234
10
21.9442875
20
14.6235211
11
22.1025127
21
14.6235211
0
LINE
8
DEFAULT_255_1_234
10
21.9354525
20
14.3881912
11
21.5892846
21
13.846852
0
LINE
8
DEFAULT_255_1_234
10
21.5892846
20
13.846852
11
21.9531224
21
13.846852
0
LINE
8
DEFAULT_255_1_234
10
21.9531224
20
13.846852
11
21.9531224
21
14.4203181
0
LINE
8
DEFAULT_255_1_234
10
21.9531224
20
14.4203181
11
21.9354525
21
14.3881912
0
ENDSEC
0
EOF