0
SECTION
2
HEADER
9
$MEASUREMENT
70
1
0
ENDSEC
0
SECTION
2
TABLES
0
TABLE
2
LTYPE
0
LTYPE
72
65
70
64
2
CONTINUOUS
3
______
73
0
40
0
0
ENDTAB
0
TABLE
2
LAYER
0
LAYER
2
DEFAULT_255_2_778
70
0
62
255
6
CONTINUOUS
0
LAYER
2
DEFAULT_255_1_234
70
0
62
255
6
CONTINUOUS
0
ENDTAB
0
ENDSEC
0
SECTION
2
ENTITIES
0
LINE
8
DEFAULT_255_2_778
10
7.0789337
20
10.4510499
11
33.5372337
21
10.4510499
0
LINE
8
DEFAULT_255_2_778
10
33.5372337
20
10.4510499
11
33.5372337
21
2.5135499
0
LINE
8
DEFAULT_255_2_778
10
33.5372337
20
2.5135499
11
7.0789337
21
2.5135499
0
LINE
8
DEFAULT_255_2_778
10
7.0789337
20
2.5135499
11
7.0789337
21
10.4510499
0
LINE
8
DEFAULT_255_2_778
10
15.0148335
20
10.4510164
11
15.0148335
21
2.5135164
0
LINE
8
DEFAULT_255_2_778
10
25.5981335
20
10.4510164
11
25.5981335
21
2.5135164
0
LINE
8
DEFAULT_255_2_778
10
17.6606335
20
15.7427164
11
17.6606335
21
7.8052164
0
LINE
8
DEFAULT_255_2_778
10
22.9523335
20
15.7427164
11
22.9523335
21
7.8052164
0
LINE
8
DEFAULT_255_2_778
10
20.3065335
20
15.7427164
11
20.3065335
21
-2.7780836
0
LINE
8
DEFAULT_255_2_778
10
20.3065335
20
6.7469164
11
22.9523335
21
6.7469164
0
LINE
8
DEFAULT_255_2_778
10
22.9523335
20
6.7469164
11
22.9523335
21
-2.7780836
0
LINE
8
DEFAULT_255_2_778
10
20.3064752
20
10.4510499
11
19.6449752
21
8.4666499
0
LINE
8
DEFAULT_255_2_778
10
19.6449752
20
8.4666499
11
20.9678752
21
8.4666499
0
LINE
8
DEFAULT_255_2_778
10
20.9678752
20
8.4666499
11
20.3064752
21
10.4510499
0
LINE
8
DEFAULT_255_2_778
10
9.7231752
20
2.5135499
11
9.7231752
21
10.4510499
0
LINE
8
DEFAULT_255_2_778
10
9.7231752
20
10.4510499
11
9.0616752
21
8.4666499
0
LINE
8
DEFAULT_255_2_778
10
9.0616752
20
8.4666499
11
10.3845752
21
8.4666499
0
LINE
8
DEFAULT_255_2_778
10
10.3845752
20
8.4666499
11
9.7231752
21
10.4510499
0
LINE
8
DEFAULT_255_2_778
10
12.3690544
20
10.4510499
11
12.3690544
21
2.5135499
0
LINE
8
DEFAULT_255_2_778
10
12.3690544
20
2.5135499
11
11.7075544
21
4.4979499
0
LINE
8
DEFAULT_255_2_778
10
11.7075544
20
4.4979499
11
13.0304544
21
4.4979499
0
LINE
8
DEFAULT_255_2_778
10
13.0304544
20
4.4979499
11
12.3690544
21
2.5135499
0
LINE
8
DEFAULT_255_2_778
10
28.2440544
20
10.4510499
11
30.8898544
21
2.5135499
0
LINE
8
DEFAULT_255_2_778
10
30.8898544
20
2.5135499
11
30.8898544
21
4.6302499
0
LINE
8
DEFAULT_255_2_778
10
30.8898544
20
4.6302499
11
29.5669544
21
4.1010499
0
LINE
8
DEFAULT_255_2_778
10
29.5669544
20
4.1010499
11
30.8898544
21
2.5135499
0
LINE
8
DEFAULT_255_2_778
10
28.244021
20
2.5135499
11
30.889921
21
10.4510499
0
LINE
8
DEFAULT_255_2_778
10
30.889921
20
10.4510499
11
30.889921
21
8.3343499
0
LINE
8
DEFAULT_255_2_778
10
30.889921
20
8.3343499
11
29.699221
21
8.8635499
0
LINE
8
DEFAULT_255_2_778
10
29.699221
20
8.8635499
11
30.889921
21
10.4510499
0
LINE
8
DEFAULT_255_2_778
10
22.952421
20
2.5135499
11
22.290921
21
4.4979499
0
LINE
8
DEFAULT_255_2_778
10
22.290921
20
4.4979499
11
23.613821
21
4.4979499
0
LINE
8
DEFAULT_255_2_778
10
23.613821
20
4.4979499
11
22.952421
21
2.5135499
0
LINE
8
DEFAULT_255_2_778
10
16.9991713
20
7.8052499
11
18.3221713
21
7.8052499
0
LINE
8
DEFAULT_255_2_778
10
23.6137713
20
7.8052499
11
22.2908713
21
7.8052499
0
LINE
8
DEFAULT_255_2_778
10
33.5356713
20
8.8635499
11
33.8295713
21
10.4510499
0
LINE
8
DEFAULT_255_2_778
10
33.8295713
20
10.4510499
11
34.2706713
21
7.8052499
0
LINE
8
DEFAULT_255_2_778
10
34.2706713
20
7.8052499
11
34.7117713
21
10.4510499
0
LINE
8
DEFAULT_255_2_778
10
34.7117713
20
10.4510499
11
35.1527713
21
7.8052499
0
LINE
8
DEFAULT_255_2_778
10
35.1527713
20
7.8052499
11
35.5938713
21
10.4510499
0
LINE
8
DEFAULT_255_2_778
10
35.5938713
20
10.4510499
11
36.0348713
21
7.8052499
0
LINE
8
DEFAULT_255_2_778
10
36.0348713
20
7.8052499
11
36.1820713
21
8.8635499
0
LINE
8
DEFAULT_255_2_778
10
7.0773713
20
9.3927499
11
6.7833713
21
7.8052499
0
LINE
8
DEFAULT_255_2_778
10
6.7833713
20
7.8052499
11
6.3422713
21
10.4510499
0
LINE
8
DEFAULT_255_2_778
10
6.3422713
20
10.4510499
11
5.9012713
21
7.8052499
0
LINE
8
DEFAULT_255_2_778
10
5.9012713
20
7.8052499
11
5.4601713
21
10.4510499
0
LINE
8
DEFAULT_255_2_778
10
5.4601713
20
10.4510499
11
5.0191713
21
7.8052499
0
LINE
8
DEFAULT_255_2_778
10
5.0191713
20
7.8052499
11
4.5780713
21
10.4510499
0
LINE
8
DEFAULT_255_2_778
10
4.5780713
20
10.4510499
11
4.4309713
21
9.3927499
0
LINE
8
DEFAULT_255_2_778
10
7.0773713
20
3.3073499
11
4.4314713
21
3.3073499
0
LINE
8
DEFAULT_255_2_778
10
4.4314713
20
4.8948499
11
7.0773713
21
4.8948499
0
LINE
8
DEFAULT_255_2_778
10
4.4314713
20
2.5135499
11
4.4314713
21
5.1593499
0
ARC
8
DEFAULT_255_2_778
10
4.4300557
20
5.8222443
40
0.6600157
50
89.871003
51
180.128997
0
ARC
8
DEFAULT_255_2_778
10
4.432949
20
5.8222655
40
0.6599943
50
359.8691577
51
90.1221758
0
ARC
8
DEFAULT_255_2_778
10
4.4329705
20
5.8193295
40
0.6599728
50
269.8759594
51
0.1240406
0
ARC
8
DEFAULT_255_2_778
10
4.4300345
20
5.8193508
40
0.6599942
50
179.8778094
51
270.1308423
0
LINE
8
DEFAULT_255_2_778
10
3.7700417
20
5.8207583
11
3.7700417
21
5.8207583
0
LINE
8
DEFAULT_255_1_234
10
15.2793137
20
14.6291433
11
15.2793137
21
13.4541
0
LINE
8
DEFAULT_255_1_234
10
15.2793137
20
13.4541
11
15.1299234
21
13.4541
0
LINE
8
DEFAULT_255_1_234
10
15.1299234
20
13.4541
11
15.1299234
21
14.4444133
0
LINE
8
DEFAULT_255_1_234
10
15.1299234
20
14.4444133
11
14.8303396
21
14.3343785
0
LINE
8
DEFAULT_255_1_234
10
14.8303396
20
14.3343785
11
14.8303396
21
14.4693117
0
LINE
8
DEFAULT_255_1_234
10
14.8303396
20
14.4693117
11
15.2560217
21
14.6291433
0
LINE
8
DEFAULT_255_1_234
10
15.2560217
20
14.6291433
11
15.2793137
21
14.6291433
0
LINE
8
DEFAULT_255_1_234
10
15.9306877
20
13.9898169
11
15.9306877
21
14.1110962
0
LINE
8
DEFAULT_255_1_234
10
15.9306877
20
14.1110962
11
16.0423289
21
14.1110962
0
LINE
8
DEFAULT_255_1_234
10
15.8519767
20
14.3167087
11
15.7033895
21
14.3167087
0
LINE
8
DEFAULT_255_1_234
10
15.6929482
20
13.7625188
11
15.8423386
21
13.7625188
0
LINE
8
DEFAULT_255_1_234
10
16.0423289
20
13.9898169
11
15.9306877
21
13.9898169
0
ARC
8
DEFAULT_255_1_234
10
16.0394155
20
14.4503713
40
0.3392876
50
270.4919872
51
281.8951556
0
ARC
8
DEFAULT_255_1_234
10
16.0635417
20
14.3401702
40
0.2264817
50
281.6691735
51
301.2943132
0
ARC
8
DEFAULT_255_1_234
10
16.0805627
20
14.3090304
40
0.1910381
50
301.7833094
51
311.7545298
0
ARC
8
DEFAULT_255_1_234
10
16.0897203
20
14.2988748
40
0.1773635
50
311.7323931
51
354.2802411
0
ARC
8
DEFAULT_255_1_234
10
16.0170828
20
14.3113722
40
0.2509385
50
353.0937916
51
0.1181479
0
ARC
8
DEFAULT_255_1_234
10
15.9709613
20
14.3161386
40
0.2970898
50
359.1805295
51
15.0453146
0
ARC
8
DEFAULT_255_1_234
10
16.105545
20
14.3553992
40
0.1569564
50
13.9577229
51
77.6713066
0
ARC
8
DEFAULT_255_1_234
10
16.0668979
20
14.2168949
40
0.3006298
50
76.1116566
51
90.7026153
0
ARC
8
DEFAULT_255_1_234
10
16.0609817
20
14.2442545
40
0.2732568
50
89.5324876
51
103.531937
0
ARC
8
DEFAULT_255_1_234
10
16.0409261
20
14.3241884
40
0.1908508
50
103.2931773
51
133.5619022
0
ARC
8
DEFAULT_255_1_234
10
16.036475
20
14.3301375
40
0.1834746
50
133.8349307
51
173.5344437
0
ARC
8
DEFAULT_255_1_234
10
16.1087793
20
14.3173213
40
0.2568033
50
172.5096846
51
180.1366907
0
ARC
8
DEFAULT_255_1_234
10
16.0136687
20
14.3207622
40
0.3103056
50
155.3484492
51
180.7484736
0
ARC
8
DEFAULT_255_1_234
10
16.0087776
20
14.3178846
40
0.3070957
50
131.5744599
51
154.4798489
0
ARC
8
DEFAULT_255_1_234
10
16.0400923
20
14.286231
40
0.3515643
50
96.9875458
51
131.9690667
0
ARC
8
DEFAULT_255_1_234
10
16.0620403
20
14.1616636
40
0.4779224
50
89.8596053
51
97.7825159
0
ARC
8
DEFAULT_255_1_234
10
16.0668466
20
14.1354616
40
0.5041361
50
78.3655447
51
90.4131539
0
ARC
8
DEFAULT_255_1_234
10
16.1026384
20
14.3013887
40
0.3344039
50
56.6229102
51
78.638727
0
ARC
8
DEFAULT_255_1_234
10
16.1241328
20
14.3389805
40
0.2912001
50
47.0253525
51
56.0854072
0
ARC
8
DEFAULT_255_1_234
10
16.1261108
20
14.3429223
40
0.2869704
50
10.9208013
51
46.7778124
0
ARC
8
DEFAULT_255_1_234
10
15.9897174
20
14.3113857
40
0.426899
50
359.6364486
51
11.6087304
0
ARC
8
DEFAULT_255_1_234
10
16.1732018
20
14.3098752
40
0.243409
50
332.3549906
51
359.7179418
0
ARC
8
DEFAULT_255_1_234
10
16.108162
20
14.3407142
40
0.3153459
50
325.2333722
51
332.8745602
0
ARC
8
DEFAULT_255_1_234
10
16.1234244
20
14.3300828
40
0.2967456
50
292.9802137
51
325.2392345
0
ARC
8
DEFAULT_255_1_234
10
16.0959617
20
14.3834863
40
0.3566604
50
292.5402179
51
293.6924929
0
ARC
8
DEFAULT_255_1_234
10
16.1352213
20
13.7380091
40
0.3307468
50
57.6435486
51
72.8625112
0
ARC
8
DEFAULT_255_1_234
10
16.1706713
20
13.7954549
40
0.2632492
50
36.7248896
51
57.4697979
0
ARC
8
DEFAULT_255_1_234
10
16.1695346
20
13.796722
40
0.2634081
50
8.0545065
51
36.356114
0
ARC
8
DEFAULT_255_1_234
10
16.0832531
20
13.7812174
40
0.3510261
50
359.8320645
51
8.5869982
0
ARC
8
DEFAULT_255_1_234
10
16.0457307
20
13.7764101
40
0.3885653
50
343.9829931
51
0.5571613
0
ARC
8
DEFAULT_255_1_234
10
16.1343504
20
13.7521438
40
0.2966924
50
311.6359546
51
343.7651759
0
ARC
8
DEFAULT_255_1_234
10
16.0965074
20
13.7948102
40
0.3537231
50
279.7829875
51
311.6255694
0
ARC
8
DEFAULT_255_1_234
10
16.066385
20
13.938528
40
0.5004971
50
269.7286406
51
280.3856417
0
ARC
8
DEFAULT_255_1_234
10
16.0601922
20
13.9343996
40
0.4963778
50
256.6828919
51
270.4412052
0
ARC
8
DEFAULT_255_1_234
10
16.0263218
20
13.7959394
40
0.3538406
50
229.4223008
51
256.8556159
0
ARC
8
DEFAULT_255_1_234
10
15.9848611
20
13.7492736
40
0.2914296
50
181.818294
51
229.6455059
0
ARC
8
DEFAULT_255_1_234
10
16.0888567
20
13.7623496
40
0.3959084
50
179.9755256
51
183.2323064
0
ARC
8
DEFAULT_255_1_234
10
16.0716313
20
13.7603037
40
0.2293034
50
179.4465117
51
196.2869258
0
ARC
8
DEFAULT_255_1_234
10
16.0228721
20
13.7469651
40
0.1787621
50
196.5661473
51
227.705904
0
ARC
8
DEFAULT_255_1_234
10
16.0392816
20
13.7653155
40
0.2033784
50
227.7652068
51
257.8762805
0
ARC
8
DEFAULT_255_1_234
10
16.0617786
20
13.8596156
40
0.3003081
50
257.4584385
51
270.426602
0
ARC
8
DEFAULT_255_1_234
10
16.0663352
20
13.8885996
40
0.329292
50
269.5962073
51
280.8789248
0
ARC
8
DEFAULT_255_1_234
10
16.0892881
20
13.7739685
40
0.2123908
50
280.6346389
51
299.8595945
0
ARC
8
DEFAULT_255_1_234
10
16.1083788
20
13.7377212
40
0.171457
50
300.3576302
51
314.5517981
0
ARC
8
DEFAULT_255_1_234
10
16.1000848
20
13.7437919
40
0.1816095
50
315.0728369
51
345.0431014
0
ARC
8
DEFAULT_255_1_234
10
16.0077662
20
13.7706841
40
0.2777492
50
344.5986631
51
357.9269593
0
ARC
8
DEFAULT_255_1_234
10
15.9181989
20
13.7768276
40
0.3674917
50
357.4748886
51
0.0231117
0
ARC
8
DEFAULT_255_1_234
10
16.0205098
20
13.7792679
40
0.2651907
50
359.5047933
51
13.4239635
0
ARC
8
DEFAULT_255_1_234
10
16.1071741
20
13.8014478
40
0.1757509
50
12.9498199
51
48.7551375
0
ARC
8
DEFAULT_255_1_234
10
16.0889475
20
13.77654
40
0.2065134
50
49.5088623
51
72.1836453
0
ARC
8
DEFAULT_255_1_234
10
16.0531628
20
13.6703291
40
0.3185836
50
71.9010081
51
84.3554254
0
ARC
8
DEFAULT_255_1_234
10
16.037026
20
13.5342326
40
0.4556151
50
84.0193428
51
89.333121
0
LINE
8
DEFAULT_255_1_234
10
16.8254233
20
14.0098963
11
16.7065536
21
14.0404169
0
LINE
8
DEFAULT_255_1_234
10
16.7065536
20
14.0404169
11
16.7659885
21
14.6235211
0
LINE
8
DEFAULT_255_1_234
10
16.7659885
20
14.6235211
11
17.3651562
21
14.6235211
0
LINE
8
DEFAULT_255_1_234
10
17.3651562
20
14.6235211
11
17.3651562
21
14.4861784
0
LINE
8
DEFAULT_255_1_234
10
17.3651562
20
14.4861784
11
16.8920868
21
14.4861784
0
LINE
8
DEFAULT_255_1_234
10
16.8920868
20
14.4861784
11
16.8567471
21
14.1673184
0
LINE
8
DEFAULT_255_1_234
10
16.6647886
20
13.7617156
11
16.805344
21
13.7617156
0
LINE
8
DEFAULT_255_1_234
10
16.8647789
20
14.0420232
11
16.8254233
21
14.0098963
0
ARC
8
DEFAULT_255_1_234
10
17.0422255
20
13.849323
40
0.3681349
50
93.7182161
51
120.2538958
0
ARC
8
DEFAULT_255_1_234
10
17.0516518
20
13.7685394
40
0.449379
50
89.9660152
51
94.2496022
0
ARC
8
DEFAULT_255_1_234
10
17.0557252
20
13.8274549
40
0.390482
50
73.8043271
51
90.5585896
0
ARC
8
DEFAULT_255_1_234
10
17.0792149
20
13.9132602
40
0.3015334
50
41.3071453
51
73.5430202
0
ARC
8
DEFAULT_255_1_234
10
17.0375976
20
13.8774324
40
0.3564457
50
13.5075983
51
41.2174222
0
ARC
8
DEFAULT_255_1_234
10
16.873418
20
13.8344486
40
0.5261351
50
1.1331335
51
13.8829381
0
ARC
8
DEFAULT_255_1_234
10
16.7322549
20
13.8268665
40
0.6674378
50
359.9919444
51
1.544251
0
ARC
8
DEFAULT_255_1_234
10
16.8599375
20
13.822728
40
0.5397702
50
347.8572367
51
0.4293338
0
ARC
8
DEFAULT_255_1_234
10
17.0349693
20
13.7830736
40
0.3603188
50
323.673004
51
348.1672506
0
ARC
8
DEFAULT_255_1_234
10
17.0644201
20
13.7651168
40
0.3259678
50
316.8171152
51
323.1492751
0
ARC
8
DEFAULT_255_1_234
10
17.070539
20
13.761446
40
0.3189975
50
281.8396411
51
316.5457803
0
ARC
8
DEFAULT_255_1_234
10
17.0329654
20
13.9169762
40
0.4789527
50
269.5770101
51
282.4214771
0
ARC
8
DEFAULT_255_1_234
10
17.0258465
20
13.8956125
40
0.45759
50
256.2427136
51
270.4486331
0
ARC
8
DEFAULT_255_1_234
10
16.9959368
20
13.7756229
40
0.3339303
50
228.9023911
51
256.3314342
0
ARC
8
DEFAULT_255_1_234
10
16.98856
20
13.7639746
40
0.32031
50
193.753695
51
228.5271154
0
ARC
8
DEFAULT_255_1_234
10
17.1123554
20
13.80028
40
0.4492253
50
184.924711
51
194.497588
0
ARC
8
DEFAULT_255_1_234
10
17.1316121
20
13.8038591
40
0.3289787
50
187.3600538
51
198.6732863
0
ARC
8
DEFAULT_255_1_234
10
17.0266415
20
13.7674674
40
0.217884
50
198.4451669
51
217.794479
0
ARC
8
DEFAULT_255_1_234
10
16.997059
20
13.7465085
40
0.1816698
50
218.2887171
51
228.5612368
0
ARC
8
DEFAULT_255_1_234
10
17.0068377
20
13.7596963
40
0.1980329
50
228.9654866
51
258.1234728
0
ARC
8
DEFAULT_255_1_234
10
17.0274087
20
13.8477833
40
0.2884748
50
257.7258293
51
270.401361
0
ARC
8
DEFAULT_255_1_234
10
17.0318974
20
13.8032821
40
0.2439788
50
269.4204404
51
286.4209037
0
ARC
8
DEFAULT_255_1_234
10
17.0467461
20
13.7493657
40
0.1880666
50
286.7251356
51
320.600362
0
ARC
8
DEFAULT_255_1_234
10
17.0084286
20
13.7804595
40
0.2374121
50
320.6712579
51
344.5441685
0
ARC
8
DEFAULT_255_1_234
10
16.8927612
20
13.8144045
40
0.3579479
50
344.2412205
51
356.7357071
0
ARC
8
DEFAULT_255_1_234
10
16.7678761
20
13.8247444
40
0.4832297
50
356.3548756
51
0.0500261
0
ARC
8
DEFAULT_255_1_234
10
16.901527
20
13.827865
40
0.3495889
50
359.5576869
51
12.953486
0
ARC
8
DEFAULT_255_1_234
10
17.0070167
20
13.8534434
40
0.2410532
50
12.6490276
51
41.6081334
0
ARC
8
DEFAULT_255_1_234
10
17.0300538
20
13.8730321
40
0.2108218
50
41.7850273
51
85.9892764
0
ARC
8
DEFAULT_255_1_234
10
17.0177275
20
13.7917462
40
0.2928454
50
84.6957577
51
90.0676183
0
ARC
8
DEFAULT_255_1_234
10
17.0153759
20
13.7248716
40
0.3597255
50
89.6804936
51
99.1614436
0
ARC
8
DEFAULT_255_1_234
10
16.994839
20
13.8476131
40
0.235281
50
98.9830931
51
113.8908934
0
ARC
8
DEFAULT_255_1_234
10
16.97188
20
13.9017587
40
0.176479
50
114.1950727
51
127.3641004
0
LINE
8
DEFAULT_255_1_234
10
18.3419119
20
-1.7212208
11
18.3419119
21
-1.8425
0
LINE
8
DEFAULT_255_1_234
10
18.3419119
20
-1.8425
11
17.575684
21
-1.8425
0
LINE
8
DEFAULT_255_1_234
10
17.575684
20
-1.8425
11
17.575684
21
-1.7356779
0
LINE
8
DEFAULT_255_1_234
10
17.575684
20
-1.7356779
11
17.9804836
21
-1.2859005
0
LINE
8
DEFAULT_255_1_234
10
17.7017823
20
-1.0176405
11
17.5531952
21
-1.0176405
0
LINE
8
DEFAULT_255_1_234
10
18.0680296
20
-1.3814782
11
17.7547918
21
-1.7212208
0
LINE
8
DEFAULT_255_1_234
10
17.7547918
20
-1.7212208
11
18.3419119
21
-1.7212208
0
ARC
8
DEFAULT_255_1_234
10
16.631467
20
-0.0929473
40
1.8008286
50
318.5132453
51
320.7828378
0
ARC
8
DEFAULT_255_1_234
10
17.1601644
20
-0.5232574
40
1.1191493
50
320.7372736
51
323.9737074
0
ARC
8
DEFAULT_255_1_234
10
17.5521501
20
-0.8072639
40
0.6350923
50
323.8961724
51
328.6421089
0
ARC
8
DEFAULT_255_1_234
10
17.7568096
20
-0.9334969
40
0.3946393
50
328.8299013
51
331.789948
0
ARC
8
DEFAULT_255_1_234
10
17.8565274
20
-0.9849491
40
0.2824501
50
331.4255242
51
352.9364833
0
ARC
8
DEFAULT_255_1_234
10
17.8701775
20
-0.9880024
40
0.2685315
50
353.2248685
51
0.0169286
0
ARC
8
DEFAULT_255_1_234
10
17.8911652
20
-0.985705
40
0.2475536
50
359.4866256
51
15.9339782
0
ARC
8
DEFAULT_255_1_234
10
17.9418637
20
-0.9720714
40
0.1950618
50
16.1714718
51
43.5284424
0
ARC
8
DEFAULT_255_1_234
10
17.9495946
20
-0.9643427
40
0.184134
50
43.4415429
51
83.1661404
0
ARC
8
DEFAULT_255_1_234
10
17.9361864
20
-1.0380229
40
0.258926
50
82.160215
51
90.1505798
0
ARC
8
DEFAULT_255_1_234
10
17.9330291
20
-1.0917135
40
0.3126255
50
89.5460705
51
102.5418777
0
ARC
8
DEFAULT_255_1_234
10
17.9087377
20
-0.9886335
40
0.2067346
50
102.1739365
51
129.2061916
0
ARC
8
DEFAULT_255_1_234
10
17.9008449
20
-0.9761906
40
0.1921118
50
129.7279328
51
135.7542026
0
ARC
8
DEFAULT_255_1_234
10
17.9129977
20
-0.9858955
40
0.2075944
50
136.175737
51
166.3674722
0
ARC
8
DEFAULT_255_1_234
10
18.0136896
20
-1.0128818
40
0.3118201
50
165.9092917
51
178.8683903
0
ARC
8
DEFAULT_255_1_234
10
18.1001757
20
-1.0175821
40
0.3983935
50
178.438168
51
180.0083905
0
ARC
8
DEFAULT_255_1_234
10
17.9600359
20
-1.0136769
40
0.4068601
50
163.2878735
51
180.5581814
0
ARC
8
DEFAULT_255_1_234
10
17.8798621
20
-0.991616
40
0.3237344
50
133.454115
51
162.9470031
0
ARC
8
DEFAULT_255_1_234
10
17.8977162
20
-1.0106
40
0.349795
50
100.7869394
51
133.4384016
0
ARC
8
DEFAULT_255_1_234
10
17.9324934
20
-1.1654681
40
0.5084616
50
89.6605301
51
101.3704185
0
ARC
8
DEFAULT_255_1_234
10
17.9391273
20
-1.1593504
40
0.502348
50
78.2171172
51
90.4130393
0
ARC
8
DEFAULT_255_1_234
10
17.9746351
20
-0.9969363
40
0.3361092
50
55.9268222
51
78.4888551
0
ARC
8
DEFAULT_255_1_234
10
17.9942791
20
-0.9630676
40
0.2970617
50
47.9292255
51
55.4054003
0
ARC
8
DEFAULT_255_1_234
10
18.0044352
20
-0.9527498
40
0.2825983
50
4.3347696
51
48.0560701
0
ARC
8
DEFAULT_255_1_234
10
17.8948745
20
-0.9697399
40
0.393225
50
359.925209
51
5.5967654
0
ARC
8
DEFAULT_255_1_234
10
17.9377637
20
-0.9641184
40
0.3503892
50
337.8914096
51
358.9967724
0
ARC
8
DEFAULT_255_1_234
10
17.6664049
20
-0.8594294
40
0.6412172
50
326.9135351
51
338.3505194
0
ARC
8
DEFAULT_255_1_234
10
17.2678353
20
-0.6039716
40
1.1146189
50
319.6472867
51
327.095818
0
ARC
8
DEFAULT_255_1_234
10
16.8845356
20
-0.2878
40
1.6114559
50
317.2586784
51
319.9046139
0
LINE
8
DEFAULT_255_1_234
10
19.1266127
20
-0.6730789
11
19.1266127
21
-1.449748
0
LINE
8
DEFAULT_255_1_234
10
19.1266127
20
-1.449748
11
19.2888538
21
-1.449748
0
LINE
8
DEFAULT_255_1_234
10
19.2888538
20
-1.449748
11
19.2888538
21
-1.5710272
0
LINE
8
DEFAULT_255_1_234
10
19.2888538
20
-1.5710272
11
19.1266127
21
-1.5710272
0
LINE
8
DEFAULT_255_1_234
10
19.1266127
20
-1.5710272
11
19.1266127
21
-1.8425
0
LINE
8
DEFAULT_255_1_234
10
19.1266127
20
-1.8425
11
18.9772224
21
-1.8425
0
LINE
8
DEFAULT_255_1_234
10
18.9772224
20
-1.8425
11
18.9772224
21
-1.5710272
0
LINE
8
DEFAULT_255_1_234
10
18.9772224
20
-1.5710272
11
18.4447181
21
-1.5710272
0
LINE
8
DEFAULT_255_1_234
10
18.4447181
20
-1.5710272
11
18.4447181
21
-1.4834813
0
LINE
8
DEFAULT_255_1_234
10
18.4447181
20
-1.4834813
11
18.9683875
21
-0.6730789
0
LINE
8
DEFAULT_255_1_234
10
18.9683875
20
-0.6730789
11
19.1266127
21
-0.6730789
0
LINE
8
DEFAULT_255_1_234
10
18.9595525
20
-0.9084088
11
18.6133846
21
-1.449748
0
LINE
8
DEFAULT_255_1_234
10
18.6133846
20
-1.449748
11
18.9772224
21
-1.449748
0
LINE
8
DEFAULT_255_1_234
10
18.9772224
20
-1.449748
11
18.9772224
21
-0.8762819
0
LINE
8
DEFAULT_255_1_234
10
18.9772224
20
-0.8762819
11
18.9595525
21
-0.9084088
0
ENDSEC
0
EOF