0
SECTION
2
HEADER
9
$MEASUREMENT
70
1
0
ENDSEC
0
SECTION
2
TABLES
0
TABLE
2
LTYPE
0
LTYPE
72
65
70
64
2
CONTINUOUS
3
______
73
0
40
0
0
ENDTAB
0
TABLE
2
LAYER
0
LAYER
2
DEFAULT_255_2_778
70
0
62
255
6
CONTINUOUS
0
LAYER
2
DEFAULT_255_1_388
70
0
62
255
6
CONTINUOUS
0
ENDTAB
0
ENDSEC
0
SECTION
2
ENTITIES
0
LINE
8
DEFAULT_255_2_778
10
8.0698337
20
10.4510499
11
34.5281337
21
10.4510499
0
LINE
8
DEFAULT_255_2_778
10
34.5281337
20
10.4510499
11
34.5281337
21
2.5135499
0
LINE
8
DEFAULT_255_2_778
10
34.5281337
20
2.5135499
11
8.0698337
21
2.5135499
0
LINE
8
DEFAULT_255_2_778
10
8.0698337
20
2.5135499
11
8.0698337
21
10.4510499
0
LINE
8
DEFAULT_255_2_778
10
16.0073
20
10.4510499
11
16.0073
21
2.5135499
0
LINE
8
DEFAULT_255_2_778
10
26.5906
20
10.4510499
11
26.5906
21
2.5135499
0
LINE
8
DEFAULT_255_2_778
10
18.6531
20
15.7426499
11
18.6531
21
7.8051499
0
LINE
8
DEFAULT_255_2_778
10
23.9448
20
15.7426499
11
23.9448
21
7.8051499
0
LINE
8
DEFAULT_255_2_778
10
21.299
20
15.7427164
11
21.299
21
-2.7780836
0
LINE
8
DEFAULT_255_2_778
10
21.2989834
20
6.7467999
11
23.9447834
21
6.7467999
0
LINE
8
DEFAULT_255_2_778
10
23.9447834
20
6.7467999
11
23.9447834
21
-2.7782001
0
LINE
8
DEFAULT_255_2_778
10
21.2990417
20
10.4509875
11
20.6375417
21
8.4665875
0
LINE
8
DEFAULT_255_2_778
10
20.6375417
20
8.4665875
11
21.9604417
21
8.4665875
0
LINE
8
DEFAULT_255_2_778
10
21.9604417
20
8.4665875
11
21.2990417
21
10.4509875
0
LINE
8
DEFAULT_255_2_778
10
10.7156417
20
2.5135499
11
10.7156417
21
10.4510499
0
LINE
8
DEFAULT_255_2_778
10
10.7156417
20
10.4510499
11
10.0541417
21
8.4666499
0
LINE
8
DEFAULT_255_2_778
10
10.0541417
20
8.4666499
11
11.3770417
21
8.4666499
0
LINE
8
DEFAULT_255_2_778
10
11.3770417
20
8.4666499
11
10.7156417
21
10.4510499
0
LINE
8
DEFAULT_255_2_778
10
13.3615417
20
10.4510499
11
13.3615417
21
2.5135499
0
LINE
8
DEFAULT_255_2_778
10
13.3615417
20
2.5135499
11
12.7000417
21
4.4979499
0
LINE
8
DEFAULT_255_2_778
10
12.7000417
20
4.4979499
11
14.0229417
21
4.4979499
0
LINE
8
DEFAULT_255_2_778
10
14.0229417
20
4.4979499
11
13.3615417
21
2.5135499
0
LINE
8
DEFAULT_255_2_778
10
29.2364834
20
10.4510499
11
31.8822834
21
2.5135499
0
LINE
8
DEFAULT_255_2_778
10
31.8822834
20
2.5135499
11
31.8822834
21
4.6302499
0
LINE
8
DEFAULT_255_2_778
10
31.8822834
20
4.6302499
11
30.5593834
21
4.1010499
0
LINE
8
DEFAULT_255_2_778
10
30.5593834
20
4.1010499
11
31.8822834
21
2.5135499
0
LINE
8
DEFAULT_255_2_778
10
29.2364834
20
2.5135499
11
31.8822834
21
10.4510499
0
LINE
8
DEFAULT_255_2_778
10
31.8822834
20
10.4510499
11
31.8822834
21
8.3343499
0
LINE
8
DEFAULT_255_2_778
10
31.8822834
20
8.3343499
11
30.6916834
21
8.8635499
0
LINE
8
DEFAULT_255_2_778
10
30.6916834
20
8.8635499
11
31.8822834
21
10.4510499
0
LINE
8
DEFAULT_255_2_778
10
23.9448417
20
2.5134875
11
23.2833417
21
4.4978875
0
LINE
8
DEFAULT_255_2_778
10
23.2833417
20
4.4978875
11
24.6062417
21
4.4978875
0
LINE
8
DEFAULT_255_2_778
10
24.6062417
20
4.4978875
11
23.9448417
21
2.5134875
0
LINE
8
DEFAULT_255_2_778
10
17.9916417
20
7.8052
11
19.3145417
21
7.8052
0
LINE
8
DEFAULT_255_2_778
10
23.2833417
20
7.8052
11
24.6062417
21
7.8052
0
LINE
8
DEFAULT_255_2_778
10
34.5281188
20
8.8635166
11
34.8221188
21
10.4510166
0
LINE
8
DEFAULT_255_2_778
10
34.8221188
20
10.4510166
11
35.2631188
21
7.8052166
0
LINE
8
DEFAULT_255_2_778
10
35.2631188
20
7.8052166
11
35.7042188
21
10.4510166
0
LINE
8
DEFAULT_255_2_778
10
35.7042188
20
10.4510166
11
36.1452188
21
7.8052166
0
LINE
8
DEFAULT_255_2_778
10
36.1452188
20
7.8052166
11
36.5863188
21
10.4510166
0
LINE
8
DEFAULT_255_2_778
10
36.5863188
20
10.4510166
11
37.0274188
21
7.8052166
0
LINE
8
DEFAULT_255_2_778
10
37.0274188
20
7.8052166
11
37.1745188
21
8.8635166
0
LINE
8
DEFAULT_255_2_778
10
34.5280834
20
6.4822749
11
37.1738834
21
6.4822749
0
LINE
8
DEFAULT_255_2_778
10
37.1738834
20
6.4822749
11
37.1738834
21
2.5135749
0
LINE
8
DEFAULT_255_2_778
10
37.1738834
20
2.5135749
11
34.5280834
21
2.5135749
0
LINE
8
DEFAULT_255_2_778
10
34.5280834
20
2.5135749
11
34.5280834
21
6.4822749
0
LINE
8
DEFAULT_255_2_778
10
37.1739417
20
6.4822749
11
35.8510417
21
4.4978749
0
LINE
8
DEFAULT_255_2_778
10
35.8510417
20
4.4978749
11
37.1739417
21
2.5135749
0
LINE
8
DEFAULT_255_2_778
10
8.0697834
20
9.3927166
11
7.7758834
21
7.8052166
0
LINE
8
DEFAULT_255_2_778
10
7.7758834
20
7.8052166
11
7.3347834
21
10.4510166
0
LINE
8
DEFAULT_255_2_778
10
7.3347834
20
10.4510166
11
6.8937834
21
7.8052166
0
LINE
8
DEFAULT_255_2_778
10
6.8937834
20
7.8052166
11
6.4526834
21
10.4510166
0
LINE
8
DEFAULT_255_2_778
10
6.4526834
20
10.4510166
11
6.0115834
21
7.8052166
0
LINE
8
DEFAULT_255_2_778
10
6.0115834
20
7.8052166
11
5.5705834
21
10.4510166
0
LINE
8
DEFAULT_255_2_778
10
5.5705834
20
10.4510166
11
5.4239834
21
9.3927166
0
LINE
8
DEFAULT_255_2_778
10
5.4239834
20
6.4822749
11
8.0697834
21
6.4822749
0
LINE
8
DEFAULT_255_2_778
10
8.0697834
20
6.4822749
11
8.0697834
21
2.5135749
0
LINE
8
DEFAULT_255_2_778
10
8.0697834
20
2.5135749
11
5.4239834
21
2.5135749
0
LINE
8
DEFAULT_255_2_778
10
5.4239834
20
2.5135749
11
5.4239834
21
6.4822749
0
LINE
8
DEFAULT_255_2_778
10
5.4239417
20
6.4822749
11
6.7468417
21
4.4978749
0
LINE
8
DEFAULT_255_2_778
10
6.7468417
20
4.4978749
11
5.4239417
21
2.5135749
0
LINE
8
DEFAULT_255_2_778
10
2.7780834
20
6.4822749
11
5.4238834
21
6.4822749
0
LINE
8
DEFAULT_255_2_778
10
5.4238834
20
6.4822749
11
5.4238834
21
2.5135749
0
LINE
8
DEFAULT_255_2_778
10
5.4238834
20
2.5135749
11
2.7780834
21
2.5135749
0
LINE
8
DEFAULT_255_2_778
10
2.7780834
20
2.5135749
11
2.7780834
21
6.4822749
0
LINE
8
DEFAULT_255_2_778
10
3.4395417
20
2.5135749
11
4.7624417
21
6.4822749
0
LINE
8
DEFAULT_255_2_778
10
37.1739834
20
6.4822749
11
39.8197834
21
6.4822749
0
LINE
8
DEFAULT_255_2_778
10
39.8197834
20
6.4822749
11
39.8197834
21
2.5135749
0
LINE
8
DEFAULT_255_2_778
10
39.8197834
20
2.5135749
11
37.1739834
21
2.5135749
0
LINE
8
DEFAULT_255_2_778
10
37.1739834
20
2.5135749
11
37.1739834
21
6.4822749
0
LINE
8
DEFAULT_255_2_778
10
37.8354417
20
2.5135749
11
39.1583417
21
6.4822749
0
LINE
8
DEFAULT_255_1_388
10
16.1739985
20
14.7876148
11
16.1739985
21
13.4657
0
LINE
8
DEFAULT_255_1_388
10
16.1739985
20
13.4657
11
16.0059355
21
13.4657
0
LINE
8
DEFAULT_255_1_388
10
16.0059355
20
13.4657
11
16.0059355
21
14.579795
0
LINE
8
DEFAULT_255_1_388
10
16.0059355
20
14.579795
11
15.668906
21
14.4560066
0
LINE
8
DEFAULT_255_1_388
10
15.668906
20
14.4560066
11
15.668906
21
14.6078055
0
LINE
8
DEFAULT_255_1_388
10
15.668906
20
14.6078055
11
16.1477951
21
14.7876148
0
LINE
8
DEFAULT_255_1_388
10
16.1477951
20
14.7876148
11
16.1739985
21
14.7876148
0
LINE
8
DEFAULT_255_1_388
10
16.9067893
20
14.0683775
11
16.9067893
21
14.2048157
0
LINE
8
DEFAULT_255_1_388
10
16.9067893
20
14.2048157
11
17.0323847
21
14.2048157
0
LINE
8
DEFAULT_255_1_388
10
16.8182399
20
14.4361282
11
16.6510805
21
14.4361282
0
LINE
8
DEFAULT_255_1_388
10
16.6393342
20
13.8126688
11
16.8073972
21
13.8126688
0
LINE
8
DEFAULT_255_1_388
10
17.0323847
20
14.0683775
11
16.9067893
21
14.0683775
0
ARC
8
DEFAULT_255_1_388
10
17.0291074
20
14.5864922
40
0.3816905
50
270.491971
51
281.8953028
0
ARC
8
DEFAULT_255_1_388
10
17.0562501
20
14.4625199
40
0.2547877
50
281.6690378
51
301.2943765
0
ARC
8
DEFAULT_255_1_388
10
17.0753952
20
14.4274926
40
0.2149197
50
301.7834992
51
311.754567
0
ARC
8
DEFAULT_255_1_388
10
17.0856993
20
14.416065
40
0.1995326
50
311.7325027
51
354.2803031
0
ARC
8
DEFAULT_255_1_388
10
17.0039409
20
14.430128
40
0.2823461
50
353.0941646
51
0.1174696
0
ARC
8
DEFAULT_255_1_388
10
16.9520967
20
14.4354874
40
0.3342238
50
359.1804452
51
15.0452323
0
ARC
8
DEFAULT_255_1_388
10
17.1035026
20
14.4796546
40
0.1765747
50
13.957816
51
77.6713812
0
ARC
8
DEFAULT_255_1_388
10
17.0600261
20
14.3238464
40
0.3381982
50
76.111571
51
90.7028736
0
ARC
8
DEFAULT_255_1_388
10
17.0533673
20
14.354625
40
0.3074046
50
89.5321574
51
103.5319393
0
ARC
8
DEFAULT_255_1_388
10
17.0308057
20
14.4445443
40
0.2147041
50
103.2930114
51
133.5619756
0
ARC
8
DEFAULT_255_1_388
10
17.0257999
20
14.4512351
40
0.2064084
50
133.8349761
51
173.5343225
0
ARC
8
DEFAULT_255_1_388
10
17.1071656
20
14.4368144
40
0.2889266
50
172.5097183
51
180.1360699
0
ARC
8
DEFAULT_255_1_388
10
17.000142
20
14.440688
40
0.3490913
50
155.3483706
51
180.7484035
0
ARC
8
DEFAULT_255_1_388
10
16.9946396
20
14.4374519
40
0.3454798
50
131.5745177
51
154.4799474
0
ARC
8
DEFAULT_255_1_388
10
17.0298678
20
14.4018422
40
0.3955058
50
96.9874487
51
131.9690874
0
ARC
8
DEFAULT_255_1_388
10
17.0545571
20
14.2617407
40
0.537622
50
89.8592909
51
97.7827481
0
ARC
8
DEFAULT_255_1_388
10
17.059968
20
14.232236
40
0.5671399
50
78.3654493
51
90.4132586
0
ARC
8
DEFAULT_255_1_388
10
17.1002321
20
14.4188918
40
0.3762034
50
56.6229818
51
78.6387103
0
ARC
8
DEFAULT_255_1_388
10
17.124415
20
14.4611846
40
0.3275964
50
47.0254604
51
56.085558
0
ARC
8
DEFAULT_255_1_388
10
17.1266401
20
14.4656189
40
0.3228382
50
10.9207523
51
46.777927
0
ARC
8
DEFAULT_255_1_388
10
16.9731995
20
14.4301401
40
0.4802559
50
359.6364235
51
11.6087615
0
ARC
8
DEFAULT_255_1_388
10
17.1796161
20
14.4284404
40
0.273833
50
332.3549969
51
359.7179765
0
ARC
8
DEFAULT_255_1_388
10
17.1064562
20
14.4631285
40
0.3547505
50
325.2332381
51
332.8746682
0
ARC
8
DEFAULT_255_1_388
10
17.1236144
20
14.4511763
40
0.3338396
50
292.9803892
51
325.2391113
0
ARC
8
DEFAULT_255_1_388
10
17.092534
20
14.5116679
40
0.4016959
50
292.542178
51
293.6931461
0
ARC
8
DEFAULT_255_1_388
10
17.1368912
20
13.7851036
40
0.372079
50
57.643292
51
72.8626085
0
ARC
8
DEFAULT_255_1_388
10
17.1767747
20
13.8497273
40
0.2961455
50
36.7246661
51
57.4701329
0
ARC
8
DEFAULT_255_1_388
10
17.1754903
20
13.851147
40
0.2963321
50
8.054535
51
36.3561529
0
ARC
8
DEFAULT_255_1_388
10
17.0784576
20
13.8337073
40
0.3948682
50
359.8316595
51
8.5873361
0
ARC
8
DEFAULT_255_1_388
10
17.036205
20
13.828297
40
0.4371398
50
343.9831631
51
0.557075
0
ARC
8
DEFAULT_255_1_388
10
17.13591
20
13.8009963
40
0.3337749
50
311.6358204
51
343.7652116
0
ARC
8
DEFAULT_255_1_388
10
17.0933353
20
13.8489955
40
0.3979351
50
279.7829743
51
311.625622
0
ARC
8
DEFAULT_255_1_388
10
17.0594489
20
14.0106642
40
0.5630417
50
269.7285092
51
280.3857694
0
ARC
8
DEFAULT_255_1_388
10
17.0524802
20
14.0060241
40
0.5584119
50
256.6827433
51
270.4412869
0
ARC
8
DEFAULT_255_1_388
10
17.0143788
20
13.8502698
40
0.3980715
50
229.4223821
51
256.8554507
0
ARC
8
DEFAULT_255_1_388
10
16.9677342
20
13.7977683
40
0.3278564
50
181.8183354
51
229.6455015
0
ARC
8
DEFAULT_255_1_388
10
17.0846951
20
13.8124825
40
0.4453611
50
179.9760419
51
183.2330638
0
ARC
8
DEFAULT_255_1_388
10
17.0653503
20
13.8101781
40
0.2579652
50
179.4467996
51
196.2871626
0
ARC
8
DEFAULT_255_1_388
10
17.0104957
20
13.7951709
40
0.2011057
50
196.5661293
51
227.7059371
0
ARC
8
DEFAULT_255_1_388
10
17.0289564
20
13.8158155
40
0.2287994
50
227.7653015
51
257.8763321
0
ARC
8
DEFAULT_255_1_388
10
17.0542647
20
13.9218961
40
0.3378385
50
257.4583525
51
270.4267406
0
ARC
8
DEFAULT_255_1_388
10
17.0593897
20
13.954523
40
0.3704652
50
269.5965319
51
280.8788143
0
ARC
8
DEFAULT_255_1_388
10
17.0852125
20
13.8255529
40
0.2389415
50
280.6347277
51
299.8594068
0
ARC
8
DEFAULT_255_1_388
10
17.1066895
20
13.7847736
40
0.19289
50
300.3575552
51
314.5515667
0
ARC
8
DEFAULT_255_1_388
10
17.097357
20
13.7916025
40
0.204312
50
315.0730962
51
345.0429362
0
ARC
8
DEFAULT_255_1_388
10
16.9935078
20
13.8218539
40
0.31246
50
344.598526
51
357.9270698
0
ARC
8
DEFAULT_255_1_388
10
16.8925383
20
13.8287705
40
0.4136265
50
357.4755098
51
0.0224936
0
ARC
8
DEFAULT_255_1_388
10
17.007826
20
13.8315099
40
0.2983498
50
359.5051035
51
13.4236939
0
ARC
8
DEFAULT_255_1_388
10
17.105335
20
13.8564637
40
0.1977186
50
12.9497905
51
48.7550905
0
ARC
8
DEFAULT_255_1_388
10
17.0848272
20
13.8284373
40
0.2323321
50
49.509109
51
72.1832965
0
ARC
8
DEFAULT_255_1_388
10
17.044574
20
13.7089632
40
0.358397
50
71.9008458
51
84.3555134
0
ARC
8
DEFAULT_255_1_388
10
17.0264135
20
13.5557712
40
0.512641
50
84.019632
51
89.3326067
0
LINE
8
DEFAULT_255_1_388
10
17.9133601
20
14.0909666
11
17.7796325
21
14.1253021
0
LINE
8
DEFAULT_255_1_388
10
17.7796325
20
14.1253021
11
17.8464963
21
14.7812898
0
LINE
8
DEFAULT_255_1_388
10
17.8464963
20
14.7812898
11
18.5205554
21
14.7812898
0
LINE
8
DEFAULT_255_1_388
10
18.5205554
20
14.7812898
11
18.5205554
21
14.6267803
0
LINE
8
DEFAULT_255_1_388
10
18.5205554
20
14.6267803
11
17.9883559
21
14.6267803
0
LINE
8
DEFAULT_255_1_388
10
17.9883559
20
14.6267803
11
17.9485991
21
14.2680652
0
LINE
8
DEFAULT_255_1_388
10
17.7326472
20
13.8117652
11
17.8907709
21
13.8117652
0
LINE
8
DEFAULT_255_1_388
10
17.9576347
20
14.1271092
11
17.9133601
21
14.0909666
0
ARC
8
DEFAULT_255_1_388
10
18.1572604
20
13.9103241
40
0.4141476
50
93.7181681
51
120.253934
0
ARC
8
DEFAULT_255_1_388
10
18.1678656
20
13.8194284
40
0.5055616
50
89.9660471
51
94.2495185
0
ARC
8
DEFAULT_255_1_388
10
18.1724478
20
13.8857154
40
0.4392953
50
73.8045384
51
90.5585736
0
ARC
8
DEFAULT_255_1_388
10
18.1988736
20
13.982252
40
0.3392225
50
41.3071072
51
73.543002
0
ARC
8
DEFAULT_255_1_388
10
18.1520556
20
13.9419461
40
0.4009977
50
13.5075837
51
41.2174839
0
ARC
8
DEFAULT_255_1_388
10
17.9673653
20
13.8935907
40
0.5918864
50
1.1330171
51
13.8830737
0
ARC
8
DEFAULT_255_1_388
10
17.8077299
20
13.8850522
40
0.7516787
50
359.9925091
51
1.5431298
0
ARC
8
DEFAULT_255_1_388
10
17.9521914
20
13.8804027
40
0.6072343
50
347.8572712
51
0.4294349
0
ARC
8
DEFAULT_255_1_388
10
18.1491049
20
13.8357898
40
0.4053482
50
323.6727442
51
348.1674594
0
ARC
8
DEFAULT_255_1_388
10
18.1822013
20
13.8156175
40
0.3667495
50
316.8171818
51
323.1486802
0
ARC
8
DEFAULT_255_1_388
10
18.1891137
20
13.8114612
40
0.358869
50
281.839603
51
316.5458142
0
ARC
8
DEFAULT_255_1_388
10
18.1468425
20
13.9864363
40
0.5388223
50
269.5770964
51
282.4214641
0
ARC
8
DEFAULT_255_1_388
10
18.1388345
20
13.962393
40
0.5147801
50
256.2425863
51
270.4486481
0
ARC
8
DEFAULT_255_1_388
10
18.1051873
20
13.8274124
40
0.3756708
50
228.9024379
51
256.33135
0
ARC
8
DEFAULT_255_1_388
10
18.0968853
20
13.8143054
40
0.360344
50
193.7536029
51
228.5272638
0
ARC
8
DEFAULT_255_1_388
10
18.2361418
20
13.8551463
40
0.5053599
50
184.9244437
51
194.4976052
0
ARC
8
DEFAULT_255_1_388
10
18.257806
20
13.8591722
40
0.3700839
50
187.3596909
51
198.6733728
0
ARC
8
DEFAULT_255_1_388
10
18.1397303
20
13.8182373
40
0.2451195
50
198.4453795
51
217.7945479
0
ARC
8
DEFAULT_255_1_388
10
18.1064476
20
13.7946563
40
0.2043754
50
218.2887146
51
228.5613203
0
ARC
8
DEFAULT_255_1_388
10
18.1174482
20
13.8094902
40
0.2227819
50
228.9652423
51
258.1237049
0
ARC
8
DEFAULT_255_1_388
10
18.140592
20
13.9085964
40
0.3245374
50
257.7260585
51
270.4013717
0
ARC
8
DEFAULT_255_1_388
10
18.1456418
20
13.8585255
40
0.2744726
50
269.4204315
51
286.420998
0
ARC
8
DEFAULT_255_1_388
10
18.1623474
20
13.7978705
40
0.2115721
50
286.7250065
51
320.6004665
0
ARC
8
DEFAULT_255_1_388
10
18.1192389
20
13.8328527
40
0.2670878
50
320.6712228
51
344.5440474
0
ARC
8
DEFAULT_255_1_388
10
17.9891103
20
13.8710394
40
0.4026927
50
344.241448
51
356.735803
0
ARC
8
DEFAULT_255_1_388
10
17.848741
20
13.8826656
40
0.5435085
50
356.3547471
51
0.0507222
0
ARC
8
DEFAULT_255_1_388
10
17.9989675
20
13.8861812
40
0.3932934
50
359.5579289
51
12.9534322
0
ARC
8
DEFAULT_255_1_388
10
18.1176515
20
13.9149586
40
0.2711827
50
12.6489751
51
41.608121
0
ARC
8
DEFAULT_255_1_388
10
18.1435675
20
13.9369946
40
0.2371737
50
41.7851122
51
85.9892156
0
ARC
8
DEFAULT_255_1_388
10
18.1296985
20
13.8454738
40
0.3295244
50
84.6965848
51
90.0672125
0
ARC
8
DEFAULT_255_1_388
10
18.1270553
20
13.7703118
40
0.4046926
50
89.6804991
51
99.161352
0
ARC
8
DEFAULT_255_1_388
10
18.1039562
20
13.9083848
40
0.2647044
50
98.9836248
51
113.8905702
0
ARC
8
DEFAULT_255_1_388
10
18.0781237
20
13.9693118
40
0.1985386
50
114.195234
51
127.3641866
0
LINE
8
DEFAULT_255_1_388
10
19.3781318
20
-1.6944618
11
19.3781318
21
-1.8309
0
LINE
8
DEFAULT_255_1_388
10
19.3781318
20
-1.8309
11
18.5161313
21
-1.8309
0
LINE
8
DEFAULT_255_1_388
10
18.5161313
20
-1.8309
11
18.5161313
21
-1.7107259
0
LINE
8
DEFAULT_255_1_388
10
18.5161313
20
-1.7107259
11
18.9715278
21
-1.2047298
0
LINE
8
DEFAULT_255_1_388
10
18.6579909
20
-0.9029393
11
18.4908315
21
-0.9029393
0
LINE
8
DEFAULT_255_1_388
10
19.0700163
20
-1.312254
11
18.7176262
21
-1.6944618
0
LINE
8
DEFAULT_255_1_388
10
18.7176262
20
-1.6944618
11
19.3781318
21
-1.6944618
0
ARC
8
DEFAULT_255_1_388
10
17.4539337
20
0.1372983
40
2.0258655
50
318.5132526
51
320.7829045
0
ARC
8
DEFAULT_255_1_388
10
18.0487294
20
-0.3468071
40
1.2589638
50
320.7372878
51
323.9739031
0
ARC
8
DEFAULT_255_1_388
10
18.4896226
20
-0.6662446
40
0.7145141
50
323.8962701
51
328.64194
0
ARC
8
DEFAULT_255_1_388
10
18.7198484
20
-0.8082455
40
0.4440242
50
328.8294576
51
331.7891185
0
ARC
8
DEFAULT_255_1_388
10
18.8320804
20
-0.8661626
40
0.3177517
50
331.4254512
51
352.9365785
0
ARC
8
DEFAULT_255_1_388
10
18.8473804
20
-0.869595
40
0.3021496
50
353.2257659
51
0.0166158
0
ARC
8
DEFAULT_255_1_388
10
18.8710564
20
-0.8670106
40
0.2784847
50
359.486299
51
15.9343185
0
ARC
8
DEFAULT_255_1_388
10
18.9280831
20
-0.8516731
40
0.2194403
50
16.1712913
51
43.5286088
0
ARC
8
DEFAULT_255_1_388
10
18.9367776
20
-0.8429809
40
0.2071504
50
43.4417391
51
83.1661095
0
ARC
8
DEFAULT_255_1_388
10
18.9216937
20
-0.9258684
40
0.2912888
50
82.160179
51
90.1505708
0
ARC
8
DEFAULT_255_1_388
10
18.9181418
20
-0.9862721
40
0.3517025
50
89.5460741
51
102.5418361
0
ARC
8
DEFAULT_255_1_388
10
18.8908138
20
-0.8703067
40
0.2325748
50
102.1738499
51
129.206123
0
ARC
8
DEFAULT_255_1_388
10
18.8819592
20
-0.8563336
40
0.2161591
50
129.72865
51
135.753947
0
ARC
8
DEFAULT_255_1_388
10
18.8956074
20
-0.8672272
40
0.2335433
50
136.1757367
51
166.3673339
0
ARC
8
DEFAULT_255_1_388
10
19.0088762
20
-0.8975852
40
0.3507873
50
165.9090694
51
178.8684636
0
ARC
8
DEFAULT_255_1_388
10
19.1064534
20
-0.9028737
40
0.4484624
50
178.4391136
51
180.0083808
0
ARC
8
DEFAULT_255_1_388
10
18.9485235
20
-0.8984803
40
0.4577138
50
163.2878482
51
180.5581842
0
ARC
8
DEFAULT_255_1_388
10
18.8583276
20
-0.8736607
40
0.3641968
50
133.4540601
51
162.947111
0
ARC
8
DEFAULT_255_1_388
10
18.8784158
20
-0.8950211
40
0.3935189
50
100.7869829
51
133.4382499
0
ARC
8
DEFAULT_255_1_388
10
18.9175403
20
-1.0692601
40
0.5720313
50
89.660664
51
101.3702276
0
ARC
8
DEFAULT_255_1_388
10
18.9250012
20
-1.0623737
40
0.5651495
50
78.2172678
51
90.412935
0
ARC
8
DEFAULT_255_1_388
10
18.9649478
20
-0.8796489
40
0.378122
50
55.9269121
51
78.4888449
0
ARC
8
DEFAULT_255_1_388
10
18.9870193
20
-0.8415813
40
0.3342379
50
47.929771
51
55.4049217
0
ARC
8
DEFAULT_255_1_388
10
18.9984723
20
-0.8299382
40
0.3179217
50
4.334829
51
48.0560205
0
ARC
8
DEFAULT_255_1_388
10
18.8752525
20
-0.8490513
40
0.442341
50
359.9251713
51
5.5971671
0
ARC
8
DEFAULT_255_1_388
10
18.923468
20
-0.8427272
40
0.3941854
50
337.8914027
51
358.9967534
0
ARC
8
DEFAULT_255_1_388
10
18.618225
20
-0.7249705
40
0.7213271
50
326.9132501
51
338.3508308
0
ARC
8
DEFAULT_255_1_388
10
18.1698362
20
-0.4375895
40
1.2538973
50
319.6471833
51
327.0959558
0
ARC
8
DEFAULT_255_1_388
10
17.738502
20
-0.081795
40
1.8129975
50
317.2588228
51
319.9045804
0
LINE
8
DEFAULT_255_1_388
10
20.2609143
20
-0.5153102
11
20.2609143
21
-1.389057
0
LINE
8
DEFAULT_255_1_388
10
20.2609143
20
-1.389057
11
20.4434343
21
-1.389057
0
LINE
8
DEFAULT_255_1_388
10
20.4434343
20
-1.389057
11
20.4434343
21
-1.5254952
0
LINE
8
DEFAULT_255_1_388
10
20.4434343
20
-1.5254952
11
20.2609143
21
-1.5254952
0
LINE
8
DEFAULT_255_1_388
10
20.2609143
20
-1.5254952
11
20.2609143
21
-1.8309
0
LINE
8
DEFAULT_255_1_388
10
20.2609143
20
-1.8309
11
20.0928513
21
-1.8309
0
LINE
8
DEFAULT_255_1_388
10
20.0928513
20
-1.8309
11
20.0928513
21
-1.5254952
0
LINE
8
DEFAULT_255_1_388
10
20.0928513
20
-1.5254952
11
19.493788
21
-1.5254952
0
LINE
8
DEFAULT_255_1_388
10
19.493788
20
-1.5254952
11
19.493788
21
-1.4270067
0
LINE
8
DEFAULT_255_1_388
10
19.493788
20
-1.4270067
11
20.0829121
21
-0.5153102
0
LINE
8
DEFAULT_255_1_388
10
20.0829121
20
-0.5153102
11
20.2609143
21
-0.5153102
0
LINE
8
DEFAULT_255_1_388
10
20.0729729
20
-0.7800545
11
19.6835366
21
-1.389057
0
LINE
8
DEFAULT_255_1_388
10
19.6835366
20
-1.389057
11
20.0928513
21
-1.389057
0
LINE
8
DEFAULT_255_1_388
10
20.0928513
20
-1.389057
11
20.0928513
21
-0.743912
0
LINE
8
DEFAULT_255_1_388
10
20.0928513
20
-0.743912
11
20.0729729
21
-0.7800545
0
ENDSEC
0
EOF