0
SECTION
2
HEADER
9
$MEASUREMENT
70
1
0
ENDSEC
0
SECTION
2
TABLES
0
TABLE
2
LTYPE
0
LTYPE
72
65
70
64
2
CONTINUOUS
3
______
73
0
40
0
0
ENDTAB
0
TABLE
2
LAYER
0
LAYER
2
DEFAULT_255_2_778
70
0
62
255
6
CONTINUOUS
0
LAYER
2
DEFAULT_255_1_234
70
0
62
255
6
CONTINUOUS
0
ENDTAB
0
ENDSEC
0
SECTION
2
ENTITIES
0
LINE
8
DEFAULT_255_2_778
10
10.7154004
20
10.4510499
11
42.4654004
21
10.4510499
0
LINE
8
DEFAULT_255_2_778
10
42.4654004
20
10.4510499
11
42.4654004
21
2.5135499
0
LINE
8
DEFAULT_255_2_778
10
42.4654004
20
2.5135499
11
10.7154004
21
2.5135499
0
LINE
8
DEFAULT_255_2_778
10
10.7154004
20
2.5135499
11
10.7154004
21
10.4510499
0
LINE
8
DEFAULT_255_2_778
10
21.2987
20
10.4510499
11
21.2987
21
2.5135499
0
LINE
8
DEFAULT_255_2_778
10
31.882
20
10.4510499
11
31.882
21
2.5135499
0
LINE
8
DEFAULT_255_2_778
10
23.9445
20
15.7426499
11
23.9445
21
7.8051499
0
LINE
8
DEFAULT_255_2_778
10
29.2362
20
15.7426499
11
29.2362
21
7.8051499
0
LINE
8
DEFAULT_255_2_778
10
26.5904
20
15.7427164
11
26.5904
21
-2.7780836
0
LINE
8
DEFAULT_255_2_778
10
26.5903834
20
6.7467999
11
29.2361834
21
6.7467999
0
LINE
8
DEFAULT_255_2_778
10
29.2361834
20
6.7467999
11
29.2361834
21
-2.7782001
0
LINE
8
DEFAULT_255_2_778
10
26.5904417
20
10.4509875
11
25.9289417
21
8.4665875
0
LINE
8
DEFAULT_255_2_778
10
25.9289417
20
8.4665875
11
27.2518417
21
8.4665875
0
LINE
8
DEFAULT_255_2_778
10
27.2518417
20
8.4665875
11
26.5904417
21
10.4509875
0
LINE
8
DEFAULT_255_2_778
10
18.6529417
20
6.0853375
11
18.6529417
21
2.5134375
0
LINE
8
DEFAULT_255_2_778
10
18.6529417
20
2.5134375
11
17.9914417
21
4.4978375
0
LINE
8
DEFAULT_255_2_778
10
17.9914417
20
4.4978375
11
19.3143417
21
4.4978375
0
LINE
8
DEFAULT_255_2_778
10
19.3143417
20
4.4978375
11
18.6529417
21
2.5134375
0
LINE
8
DEFAULT_255_2_778
10
36.2476625
20
7.8713062
11
39.8195625
21
2.5135062
0
LINE
8
DEFAULT_255_2_778
10
39.8195625
20
2.5135062
11
39.2903625
21
4.5640062
0
LINE
8
DEFAULT_255_2_778
10
39.2903625
20
4.5640062
11
38.1658625
21
3.7703062
0
LINE
8
DEFAULT_255_2_778
10
38.1658625
20
3.7703062
11
39.8195625
21
2.5135062
0
LINE
8
DEFAULT_255_2_778
10
29.2362417
20
2.5134875
11
28.5747417
21
4.4978875
0
LINE
8
DEFAULT_255_2_778
10
28.5747417
20
4.4978875
11
29.8976417
21
4.4978875
0
LINE
8
DEFAULT_255_2_778
10
29.8976417
20
4.4978875
11
29.2362417
21
2.5134875
0
LINE
8
DEFAULT_255_2_778
10
23.2830417
20
7.8052
11
24.6059417
21
7.8052
0
LINE
8
DEFAULT_255_2_778
10
28.5747417
20
7.8052
11
29.8976417
21
7.8052
0
LINE
8
DEFAULT_255_2_778
10
42.4653188
20
8.8635166
11
42.7593188
21
10.4510166
0
LINE
8
DEFAULT_255_2_778
10
42.7593188
20
10.4510166
11
43.2003188
21
7.8052166
0
LINE
8
DEFAULT_255_2_778
10
43.2003188
20
7.8052166
11
43.6414188
21
10.4510166
0
LINE
8
DEFAULT_255_2_778
10
43.6414188
20
10.4510166
11
44.0824188
21
7.8052166
0
LINE
8
DEFAULT_255_2_778
10
44.0824188
20
7.8052166
11
44.5235188
21
10.4510166
0
LINE
8
DEFAULT_255_2_778
10
44.5235188
20
10.4510166
11
44.9646188
21
7.8052166
0
LINE
8
DEFAULT_255_2_778
10
44.9646188
20
7.8052166
11
45.1117188
21
8.8635166
0
LINE
8
DEFAULT_255_2_778
10
42.4637834
20
6.4822749
11
45.1095834
21
6.4822749
0
LINE
8
DEFAULT_255_2_778
10
45.1095834
20
6.4822749
11
45.1095834
21
2.5135749
0
LINE
8
DEFAULT_255_2_778
10
45.1095834
20
2.5135749
11
42.4637834
21
2.5135749
0
LINE
8
DEFAULT_255_2_778
10
42.4637834
20
2.5135749
11
42.4637834
21
6.4822749
0
LINE
8
DEFAULT_255_2_778
10
45.1111417
20
6.4822749
11
43.7882417
21
4.4978749
0
LINE
8
DEFAULT_255_2_778
10
43.7882417
20
4.4978749
11
45.1111417
21
2.5135749
0
LINE
8
DEFAULT_255_2_778
10
45.1116834
20
3.8364583
11
47.7574834
21
3.8364583
0
LINE
8
DEFAULT_255_2_778
10
47.7574834
20
3.8364583
11
47.7574834
21
2.5135583
0
LINE
8
DEFAULT_255_2_778
10
47.7574834
20
2.5135583
11
45.1116834
21
2.5135583
0
LINE
8
DEFAULT_255_2_778
10
45.1116834
20
2.5135583
11
45.1116834
21
3.8364583
0
LINE
8
DEFAULT_255_2_778
10
45.7726417
20
2.5135583
11
47.0955417
21
3.8364583
0
LINE
8
DEFAULT_255_2_778
10
45.1111834
20
6.4823
11
47.7569834
21
6.4823
0
LINE
8
DEFAULT_255_2_778
10
45.1111834
20
5.1593
11
47.7569834
21
5.1593
0
LINE
8
DEFAULT_255_2_778
10
47.757
20
7.1437166
11
47.757
21
4.4979166
0
LINE
8
DEFAULT_255_2_778
10
10.7152834
20
9.3927166
11
10.4213834
21
7.8052166
0
LINE
8
DEFAULT_255_2_778
10
10.4213834
20
7.8052166
11
9.9802834
21
10.4510166
0
LINE
8
DEFAULT_255_2_778
10
9.9802834
20
10.4510166
11
9.5392834
21
7.8052166
0
LINE
8
DEFAULT_255_2_778
10
9.5392834
20
7.8052166
11
9.0981834
21
10.4510166
0
LINE
8
DEFAULT_255_2_778
10
9.0981834
20
10.4510166
11
8.6570834
21
7.8052166
0
LINE
8
DEFAULT_255_2_778
10
8.6570834
20
7.8052166
11
8.2160834
21
10.4510166
0
LINE
8
DEFAULT_255_2_778
10
8.2160834
20
10.4510166
11
8.0694834
21
9.3927166
0
LINE
8
DEFAULT_255_2_778
10
8.0689834
20
6.4822749
11
10.7147834
21
6.4822749
0
LINE
8
DEFAULT_255_2_778
10
10.7147834
20
6.4822749
11
10.7147834
21
2.5135749
0
LINE
8
DEFAULT_255_2_778
10
10.7147834
20
2.5135749
11
8.0689834
21
2.5135749
0
LINE
8
DEFAULT_255_2_778
10
8.0689834
20
2.5135749
11
8.0689834
21
6.4822749
0
LINE
8
DEFAULT_255_2_778
10
8.0695417
20
6.4822749
11
9.3924417
21
4.4978749
0
LINE
8
DEFAULT_255_2_778
10
9.3924417
20
4.4978749
11
8.0695417
21
2.5135749
0
LINE
8
DEFAULT_255_2_778
10
5.4257834
20
3.8364583
11
8.0715834
21
3.8364583
0
LINE
8
DEFAULT_255_2_778
10
8.0715834
20
3.8364583
11
8.0715834
21
2.5135583
0
LINE
8
DEFAULT_255_2_778
10
8.0715834
20
2.5135583
11
5.4257834
21
2.5135583
0
LINE
8
DEFAULT_255_2_778
10
5.4257834
20
2.5135583
11
5.4257834
21
3.8364583
0
LINE
8
DEFAULT_255_2_778
10
7.4080417
20
2.5135583
11
6.0851417
21
3.8364583
0
LINE
8
DEFAULT_255_2_778
10
8.0694834
20
6.4823
11
5.4236834
21
6.4823
0
LINE
8
DEFAULT_255_2_778
10
8.0694834
20
5.1593
11
5.4236834
21
5.1593
0
LINE
8
DEFAULT_255_2_778
10
5.4237
20
7.1437166
11
5.4237
21
4.4979166
0
ARC
8
DEFAULT_255_2_778
10
18.6493392
20
7.0136632
40
0.8790985
50
135.6657692
51
180.1503572
0
ARC
8
DEFAULT_255_2_778
10
18.6497842
20
7.014209
40
0.8790356
50
90.2249452
51
135.7114825
0
ARC
8
DEFAULT_255_2_778
10
18.6521107
20
6.9959386
40
0.8973177
50
89.9978894
51
90.3689202
0
ARC
8
DEFAULT_255_2_778
10
18.6544223
20
7.0143041
40
0.8789551
50
45.6619653
51
90.1485273
0
ARC
8
DEFAULT_255_2_778
10
18.6548557
20
7.0137115
40
0.8790763
50
0.2252168
51
45.709162
0
ARC
8
DEFAULT_255_2_778
10
18.6366262
20
7.0113893
40
0.8973177
50
359.9978894
51
0.3689202
0
ARC
8
DEFAULT_255_2_778
10
18.654949
20
7.0090828
40
0.8789977
50
315.6642148
51
0.1481882
0
ARC
8
DEFAULT_255_2_778
10
18.654468
20
7.0085087
40
0.8789408
50
270.227196
51
315.7128927
0
ARC
8
DEFAULT_255_2_778
10
18.652177
20
7.0264752
40
0.896919
50
269.9978796
51
270.3689996
0
ARC
8
DEFAULT_255_2_778
10
18.6498419
20
7.0086944
40
0.8791411
50
225.6680186
51
270.1500181
0
ARC
8
DEFAULT_255_2_778
10
18.6491554
20
7.0090276
40
0.8789
50
180.2269245
51
225.7152133
0
ARC
8
DEFAULT_255_2_778
10
18.6671627
20
7.011323
40
0.896919
50
179.9978796
51
180.3689996
0
LINE
8
DEFAULT_255_2_778
10
17.7702438
20
7.0113562
11
17.7702438
21
7.0113562
0
LINE
8
DEFAULT_255_2_778
10
17.3299834
20
7.0114583
11
18.6528834
21
8.3343583
0
LINE
8
DEFAULT_255_2_778
10
18.6528834
20
8.3343583
11
19.9757834
21
7.0114583
0
LINE
8
DEFAULT_255_2_778
10
18.6529
20
10.4510333
11
18.6529
21
8.3343333
0
LINE
8
DEFAULT_255_2_778
10
14.6840855
20
6.6476737
11
13.3588855
21
10.3930737
0
LINE
8
DEFAULT_255_2_778
10
13.3588855
20
10.3930737
11
14.6510855
21
8.7973737
0
LINE
8
DEFAULT_255_2_778
10
14.6510855
20
8.7973737
11
13.3432855
21
8.3014737
0
LINE
8
DEFAULT_255_2_778
10
13.3432855
20
8.3014737
11
13.3591855
21
10.3931737
0
ARC
8
DEFAULT_255_2_778
10
14.9327714
20
5.779713
40
0.8969274
50
10.4080275
51
18.0221281
0
ARC
8
DEFAULT_255_2_778
10
14.9497818
20
5.7828635
40
0.8796277
50
0.0086256
51
10.4063602
0
ARC
8
DEFAULT_255_2_778
10
14.9495172
20
5.7835385
40
0.8798925
50
290.8452645
51
359.9646733
0
ARC
8
DEFAULT_255_2_778
10
14.9399359
20
5.8063185
40
0.9045915
50
288.0015245
51
290.8989734
0
ARC
8
DEFAULT_255_2_778
10
14.9419287
20
5.7991479
40
0.8971562
50
280.4098249
51
288.0220104
0
ARC
8
DEFAULT_255_2_778
10
14.9450958
20
5.7820441
40
0.8797617
50
270.0086198
51
280.4082247
0
ARC
8
DEFAULT_255_2_778
10
14.9457344
20
5.7820462
40
0.879764
50
200.83933
51
269.967031
0
ARC
8
DEFAULT_255_2_778
10
14.9687717
20
5.7917568
40
0.9047491
50
197.9977155
51
200.8950519
0
ARC
8
DEFAULT_255_2_778
10
14.9612145
20
5.7897035
40
0.8969274
50
190.4080275
51
198.0221281
0
ARC
8
DEFAULT_255_2_778
10
14.9442041
20
5.786553
40
0.8796277
50
180.0086256
51
190.4063602
0
ARC
8
DEFAULT_255_2_778
10
14.9444687
20
5.7858781
40
0.8798925
50
110.8452645
51
179.9646733
0
ARC
8
DEFAULT_255_2_778
10
14.95405
20
5.7630981
40
0.9045915
50
108.0015245
51
110.8989734
0
ARC
8
DEFAULT_255_2_778
10
14.9519882
20
5.7704867
40
0.8969274
50
100.4080275
51
108.0221281
0
ARC
8
DEFAULT_255_2_778
10
14.9488377
20
5.7874971
40
0.8796277
50
90.0086256
51
100.4063602
0
ARC
8
DEFAULT_255_2_778
10
14.9481628
20
5.7872325
40
0.8798925
50
20.8452645
51
89.9646733
0
ARC
8
DEFAULT_255_2_778
10
14.9253828
20
5.7776513
40
0.9045915
50
18.0015245
51
20.8989734
0
LINE
8
DEFAULT_255_2_778
10
15.7856929
20
6.0572083
11
15.7856929
21
6.0572083
0
LINE
8
DEFAULT_255_2_778
10
16.2054269
20
6.1934904
11
15.3561269
21
4.5264904
0
LINE
8
DEFAULT_255_2_778
10
15.3561269
20
4.5264904
11
13.6891269
21
5.3758904
0
LINE
8
DEFAULT_255_2_778
10
16.0102618
20
2.5134411
11
15.3561618
21
4.5265411
0
LINE
8
DEFAULT_255_2_778
10
38.8934088
20
7.8052241
11
39.8217088
21
10.3932241
0
LINE
8
DEFAULT_255_2_778
10
39.8217088
20
10.3932241
11
38.5298088
21
8.7974241
0
LINE
8
DEFAULT_255_2_778
10
38.5298088
20
8.7974241
11
39.8376088
21
8.3015241
0
LINE
8
DEFAULT_255_2_778
10
39.8376088
20
8.3015241
11
39.8217088
21
10.3932241
0
ARC
8
DEFAULT_255_2_778
10
38.5991211
20
6.93918
40
0.8794696
50
305.6363357
51
342.1368203
0
ARC
8
DEFAULT_255_2_778
10
38.5986209
20
6.9395606
40
0.8800704
50
270.0380466
51
305.6483631
0
ARC
8
DEFAULT_255_2_778
10
38.5993377
20
6.9391182
40
0.8796278
50
259.5936398
51
269.9913744
0
ARC
8
DEFAULT_255_2_778
10
38.6024882
20
6.9561286
40
0.8969274
50
251.9778719
51
259.5919725
0
ARC
8
DEFAULT_255_2_778
10
38.5947659
20
6.9402789
40
0.8794696
50
215.6363357
51
252.1368203
0
ARC
8
DEFAULT_255_2_778
10
38.5951465
20
6.9407791
40
0.8800704
50
180.0380466
51
215.6483631
0
ARC
8
DEFAULT_255_2_778
10
38.5947041
20
6.9400623
40
0.8796278
50
169.5936398
51
179.9913744
0
ARC
8
DEFAULT_255_2_778
10
38.6117145
20
6.9369118
40
0.8969274
50
161.9778719
51
169.5919725
0
ARC
8
DEFAULT_255_2_778
10
38.5958648
20
6.9446341
40
0.8794696
50
125.6363357
51
162.1368203
0
ARC
8
DEFAULT_255_2_778
10
38.596365
20
6.9442535
40
0.8800704
50
90.0380466
51
125.6483631
0
ARC
8
DEFAULT_255_2_778
10
38.5956482
20
6.9446959
40
0.8796278
50
79.5936398
51
89.9913744
0
ARC
8
DEFAULT_255_2_778
10
38.5924977
20
6.9276855
40
0.8969274
50
71.9778719
51
79.5919725
0
ARC
8
DEFAULT_255_2_778
10
38.60022
20
6.9435352
40
0.8794696
50
35.6363357
51
72.1368203
0
ARC
8
DEFAULT_255_2_778
10
38.5998394
20
6.943035
40
0.8800704
50
0.0380466
51
35.6483631
0
ARC
8
DEFAULT_255_2_778
10
38.6002818
20
6.9437518
40
0.8796278
50
349.5936398
51
359.9913744
0
ARC
8
DEFAULT_255_2_778
10
38.5832714
20
6.9469023
40
0.8969274
50
341.9778719
51
349.5919725
0
LINE
8
DEFAULT_255_2_778
10
39.4361929
20
6.6694071
11
39.4361929
21
6.6694071
0
LINE
8
DEFAULT_255_2_778
10
37.3389269
20
7.3507904
11
38.1883269
21
5.6837904
0
LINE
8
DEFAULT_255_2_778
10
38.1883269
20
5.6837904
11
39.8552269
21
6.5331904
0
LINE
8
DEFAULT_255_2_778
10
37.1705162
20
2.5135
11
38.1991162
21
5.6885
0
ARC
8
DEFAULT_255_2_778
10
35.7609328
20
8.6238181
40
0.8850951
50
194.5281096
51
214.0806438
0
ARC
8
DEFAULT_255_2_778
10
35.7528027
20
8.6209881
40
0.8765154
50
183.0341332
51
194.4823451
0
ARC
8
DEFAULT_255_2_778
10
35.7555304
20
8.6211865
40
0.8792498
50
179.9994076
51
183.0376413
0
ARC
8
DEFAULT_255_2_778
10
35.7555256
20
8.6216902
40
0.8792454
50
132.1089703
51
180.0322305
0
ARC
8
DEFAULT_255_2_778
10
35.7668743
20
8.6086289
40
0.8965451
50
123.9830147
51
132.0873076
0
ARC
8
DEFAULT_255_2_778
10
35.7617243
20
8.6189672
40
0.8850951
50
104.5281096
51
124.0806438
0
ARC
8
DEFAULT_255_2_778
10
35.7588942
20
8.6270973
40
0.8765154
50
93.0341332
51
104.4823451
0
ARC
8
DEFAULT_255_2_778
10
35.7590927
20
8.6243696
40
0.8792498
50
89.9994076
51
93.0376413
0
ARC
8
DEFAULT_255_2_778
10
35.7595964
20
8.6243744
40
0.8792454
50
42.1089703
51
90.0322305
0
ARC
8
DEFAULT_255_2_778
10
35.746535
20
8.6130257
40
0.8965451
50
33.9830147
51
42.0873076
0
ARC
8
DEFAULT_255_2_778
10
35.7568733
20
8.6181757
40
0.8850951
50
14.5281096
51
34.0806438
0
ARC
8
DEFAULT_255_2_778
10
35.7650035
20
8.6210058
40
0.8765154
50
3.0341332
51
14.4823451
0
ARC
8
DEFAULT_255_2_778
10
35.7622757
20
8.6208073
40
0.8792498
50
359.9994076
51
3.0376413
0
ARC
8
DEFAULT_255_2_778
10
35.7622805
20
8.6203036
40
0.8792454
50
312.1089703
51
0.0322305
0
ARC
8
DEFAULT_255_2_778
10
35.7509318
20
8.633365
40
0.8965451
50
303.9830147
51
312.0873076
0
ARC
8
DEFAULT_255_2_778
10
35.7560949
20
8.6230159
40
0.8850789
50
284.5270954
51
304.0803378
0
ARC
8
DEFAULT_255_2_778
10
35.7588891
20
8.6150015
40
0.8766201
50
273.0342355
51
284.4816989
0
ARC
8
DEFAULT_255_2_778
10
35.7586833
20
8.6177442
40
0.87937
50
269.9996544
51
273.0381653
0
ARC
8
DEFAULT_255_2_778
10
35.7581456
20
8.6175242
40
0.8791501
50
222.1062097
51
270.034695
0
ARC
8
DEFAULT_255_2_778
10
35.7709076
20
8.6285371
40
0.8960026
50
213.9731521
51
222.0814931
0
LINE
8
DEFAULT_255_2_778
10
35.0278531
20
8.1278469
11
35.0278531
21
8.1278469
0
LINE
8
DEFAULT_255_2_778
10
34.6601492
20
7.8811629
11
35.0171492
21
9.7176629
0
LINE
8
DEFAULT_255_2_778
10
35.0171492
20
9.7176629
11
36.8536492
21
9.3606629
0
LINE
8
DEFAULT_255_2_778
10
37.1737
20
10.4510166
11
37.1737
21
7.8052166
0
LINE
8
DEFAULT_255_2_778
10
36.5122417
20
7.8052
11
37.8351417
21
7.8052
0
LINE
8
DEFAULT_255_2_778
10
34.5278531
20
10.4510021
11
35.0239531
21
9.7234021
0
LINE
8
DEFAULT_255_2_778
10
16.007
20
10.4510166
11
16.007
21
7.8052166
0
LINE
8
DEFAULT_255_2_778
10
15.3455417
20
7.8052
11
16.6684417
21
7.8052
0
LINE
8
DEFAULT_255_1_234
10
26.5396235
20
14.5893963
11
26.4207538
21
14.6199169
0
LINE
8
DEFAULT_255_1_234
10
26.4207538
20
14.6199169
11
26.4801887
21
15.2030211
0
LINE
8
DEFAULT_255_1_234
10
26.4801887
20
15.2030211
11
27.0793563
21
15.2030211
0
LINE
8
DEFAULT_255_1_234
10
27.0793563
20
15.2030211
11
27.0793563
21
15.0656784
0
LINE
8
DEFAULT_255_1_234
10
27.0793563
20
15.0656784
11
26.606287
21
15.0656784
0
LINE
8
DEFAULT_255_1_234
10
26.606287
20
15.0656784
11
26.5709473
21
14.7468184
0
LINE
8
DEFAULT_255_1_234
10
26.3789888
20
14.3412156
11
26.5195442
21
14.3412156
0
LINE
8
DEFAULT_255_1_234
10
26.5789791
20
14.6215232
11
26.5396235
21
14.5893963
0
ARC
8
DEFAULT_255_1_234
10
26.7564257
20
14.428823
40
0.3681349
50
93.7182161
51
120.2538958
0
ARC
8
DEFAULT_255_1_234
10
26.765852
20
14.3480394
40
0.449379
50
89.9660152
51
94.2496022
0
ARC
8
DEFAULT_255_1_234
10
26.7699254
20
14.4069549
40
0.390482
50
73.8043271
51
90.5585896
0
ARC
8
DEFAULT_255_1_234
10
26.7934151
20
14.4927602
40
0.3015334
50
41.3071453
51
73.5430202
0
ARC
8
DEFAULT_255_1_234
10
26.7517978
20
14.4569324
40
0.3564457
50
13.5075983
51
41.2174222
0
ARC
8
DEFAULT_255_1_234
10
26.5876182
20
14.4139486
40
0.5261351
50
1.1331335
51
13.8829381
0
ARC
8
DEFAULT_255_1_234
10
26.4464551
20
14.4063665
40
0.6674378
50
359.9919444
51
1.544251
0
ARC
8
DEFAULT_255_1_234
10
26.5741377
20
14.402228
40
0.5397702
50
347.8572367
51
0.4293338
0
ARC
8
DEFAULT_255_1_234
10
26.7491695
20
14.3625736
40
0.3603188
50
323.673004
51
348.1672506
0
ARC
8
DEFAULT_255_1_234
10
26.7786203
20
14.3446168
40
0.3259678
50
316.8171152
51
323.1492751
0
ARC
8
DEFAULT_255_1_234
10
26.7847392
20
14.340946
40
0.3189975
50
281.8396411
51
316.5457803
0
ARC
8
DEFAULT_255_1_234
10
26.7471656
20
14.4964762
40
0.4789527
50
269.5770101
51
282.4214771
0
ARC
8
DEFAULT_255_1_234
10
26.7400467
20
14.4751125
40
0.45759
50
256.2427136
51
270.4486331
0
ARC
8
DEFAULT_255_1_234
10
26.710137
20
14.3551229
40
0.3339303
50
228.9023911
51
256.3314342
0
ARC
8
DEFAULT_255_1_234
10
26.7027602
20
14.3434746
40
0.32031
50
193.753695
51
228.5271154
0
ARC
8
DEFAULT_255_1_234
10
26.8265556
20
14.37978
40
0.4492253
50
184.924711
51
194.497588
0
ARC
8
DEFAULT_255_1_234
10
26.8458123
20
14.3833591
40
0.3289787
50
187.3600538
51
198.6732863
0
ARC
8
DEFAULT_255_1_234
10
26.7408417
20
14.3469674
40
0.217884
50
198.4451669
51
217.794479
0
ARC
8
DEFAULT_255_1_234
10
26.7112592
20
14.3260085
40
0.1816698
50
218.2887171
51
228.5612368
0
ARC
8
DEFAULT_255_1_234
10
26.7210379
20
14.3391963
40
0.1980329
50
228.9654866
51
258.1234728
0
ARC
8
DEFAULT_255_1_234
10
26.7416089
20
14.4272833
40
0.2884748
50
257.7258293
51
270.401361
0
ARC
8
DEFAULT_255_1_234
10
26.7460975
20
14.3827821
40
0.2439788
50
269.4204404
51
286.4209037
0
ARC
8
DEFAULT_255_1_234
10
26.7609463
20
14.3288657
40
0.1880666
50
286.7251356
51
320.600362
0
ARC
8
DEFAULT_255_1_234
10
26.7226288
20
14.3599595
40
0.2374121
50
320.6712579
51
344.5441685
0
ARC
8
DEFAULT_255_1_234
10
26.6069614
20
14.3939045
40
0.3579479
50
344.2412205
51
356.7357071
0
ARC
8
DEFAULT_255_1_234
10
26.4820763
20
14.4042444
40
0.4832297
50
356.3548756
51
0.0500261
0
ARC
8
DEFAULT_255_1_234
10
26.6157272
20
14.407365
40
0.3495889
50
359.5576869
51
12.953486
0
ARC
8
DEFAULT_255_1_234
10
26.7212169
20
14.4329434
40
0.2410532
50
12.6490276
51
41.6081334
0
ARC
8
DEFAULT_255_1_234
10
26.744254
20
14.4525321
40
0.2108218
50
41.7850273
51
85.9892764
0
ARC
8
DEFAULT_255_1_234
10
26.7319277
20
14.3712462
40
0.2928454
50
84.6957577
51
90.0676183
0
ARC
8
DEFAULT_255_1_234
10
26.7295761
20
14.3043716
40
0.3597255
50
89.6804936
51
99.1614436
0
ARC
8
DEFAULT_255_1_234
10
26.7090392
20
14.4271131
40
0.235281
50
98.9830931
51
113.8908934
0
ARC
8
DEFAULT_255_1_234
10
26.6860802
20
14.4812587
40
0.176479
50
114.1950727
51
127.3641004
0
LINE
8
DEFAULT_255_1_234
10
27.4921877
20
14.5693169
11
27.4921877
21
14.6905962
0
LINE
8
DEFAULT_255_1_234
10
27.4921877
20
14.6905962
11
27.6038289
21
14.6905962
0
LINE
8
DEFAULT_255_1_234
10
27.4134767
20
14.8962087
11
27.2648895
21
14.8962087
0
LINE
8
DEFAULT_255_1_234
10
27.2544482
20
14.3420188
11
27.4038386
21
14.3420188
0
LINE
8
DEFAULT_255_1_234
10
27.6038289
20
14.5693169
11
27.4921877
21
14.5693169
0
ARC
8
DEFAULT_255_1_234
10
27.6009155
20
15.0298713
40
0.3392876
50
270.4919872
51
281.8951556
0
ARC
8
DEFAULT_255_1_234
10
27.6250417
20
14.9196702
40
0.2264817
50
281.6691735
51
301.2943132
0
ARC
8
DEFAULT_255_1_234
10
27.6420627
20
14.8885304
40
0.1910381
50
301.7833094
51
311.7545298
0
ARC
8
DEFAULT_255_1_234
10
27.6512203
20
14.8783748
40
0.1773635
50
311.7323931
51
354.2802411
0
ARC
8
DEFAULT_255_1_234
10
27.5785828
20
14.8908722
40
0.2509385
50
353.0937916
51
0.1181479
0
ARC
8
DEFAULT_255_1_234
10
27.5324613
20
14.8956386
40
0.2970898
50
359.1805295
51
15.0453146
0
ARC
8
DEFAULT_255_1_234
10
27.667045
20
14.9348992
40
0.1569564
50
13.9577229
51
77.6713066
0
ARC
8
DEFAULT_255_1_234
10
27.6283979
20
14.7963949
40
0.3006298
50
76.1116566
51
90.7026153
0
ARC
8
DEFAULT_255_1_234
10
27.6224817
20
14.8237545
40
0.2732568
50
89.5324876
51
103.531937
0
ARC
8
DEFAULT_255_1_234
10
27.6024261
20
14.9036884
40
0.1908508
50
103.2931773
51
133.5619022
0
ARC
8
DEFAULT_255_1_234
10
27.597975
20
14.9096375
40
0.1834746
50
133.8349307
51
173.5344437
0
ARC
8
DEFAULT_255_1_234
10
27.6702793
20
14.8968213
40
0.2568033
50
172.5096846
51
180.1366907
0
ARC
8
DEFAULT_255_1_234
10
27.5751687
20
14.9002622
40
0.3103056
50
155.3484492
51
180.7484736
0
ARC
8
DEFAULT_255_1_234
10
27.5702776
20
14.8973846
40
0.3070957
50
131.5744599
51
154.4798489
0
ARC
8
DEFAULT_255_1_234
10
27.6015923
20
14.865731
40
0.3515643
50
96.9875458
51
131.9690667
0
ARC
8
DEFAULT_255_1_234
10
27.6235403
20
14.7411636
40
0.4779224
50
89.8596053
51
97.7825159
0
ARC
8
DEFAULT_255_1_234
10
27.6283466
20
14.7149616
40
0.5041361
50
78.3655447
51
90.4131539
0
ARC
8
DEFAULT_255_1_234
10
27.6641384
20
14.8808887
40
0.3344039
50
56.6229102
51
78.638727
0
ARC
8
DEFAULT_255_1_234
10
27.6856328
20
14.9184805
40
0.2912001
50
47.0253525
51
56.0854072
0
ARC
8
DEFAULT_255_1_234
10
27.6876108
20
14.9224223
40
0.2869704
50
10.9208013
51
46.7778124
0
ARC
8
DEFAULT_255_1_234
10
27.5512174
20
14.8908857
40
0.426899
50
359.6364486
51
11.6087304
0
ARC
8
DEFAULT_255_1_234
10
27.7347018
20
14.8893752
40
0.243409
50
332.3549906
51
359.7179418
0
ARC
8
DEFAULT_255_1_234
10
27.669662
20
14.9202142
40
0.3153459
50
325.2333722
51
332.8745602
0
ARC
8
DEFAULT_255_1_234
10
27.6849244
20
14.9095828
40
0.2967456
50
292.9802137
51
325.2392345
0
ARC
8
DEFAULT_255_1_234
10
27.6574617
20
14.9629863
40
0.3566604
50
292.5402179
51
293.6924929
0
ARC
8
DEFAULT_255_1_234
10
27.6967213
20
14.3175091
40
0.3307468
50
57.6435486
51
72.8625112
0
ARC
8
DEFAULT_255_1_234
10
27.7321713
20
14.3749549
40
0.2632492
50
36.7248896
51
57.4697979
0
ARC
8
DEFAULT_255_1_234
10
27.7310346
20
14.376222
40
0.2634081
50
8.0545065
51
36.356114
0
ARC
8
DEFAULT_255_1_234
10
27.6447531
20
14.3607174
40
0.3510261
50
359.8320645
51
8.5869982
0
ARC
8
DEFAULT_255_1_234
10
27.6072307
20
14.3559101
40
0.3885653
50
343.9829931
51
0.5571613
0
ARC
8
DEFAULT_255_1_234
10
27.6958504
20
14.3316438
40
0.2966924
50
311.6359546
51
343.7651759
0
ARC
8
DEFAULT_255_1_234
10
27.6580074
20
14.3743102
40
0.3537231
50
279.7829875
51
311.6255694
0
ARC
8
DEFAULT_255_1_234
10
27.627885
20
14.518028
40
0.5004971
50
269.7286406
51
280.3856417
0
ARC
8
DEFAULT_255_1_234
10
27.6216922
20
14.5138996
40
0.4963778
50
256.6828919
51
270.4412052
0
ARC
8
DEFAULT_255_1_234
10
27.5878218
20
14.3754394
40
0.3538406
50
229.4223008
51
256.8556159
0
ARC
8
DEFAULT_255_1_234
10
27.5463611
20
14.3287736
40
0.2914296
50
181.818294
51
229.6455059
0
ARC
8
DEFAULT_255_1_234
10
27.6503567
20
14.3418496
40
0.3959084
50
179.9755256
51
183.2323064
0
ARC
8
DEFAULT_255_1_234
10
27.6331313
20
14.3398037
40
0.2293034
50
179.4465117
51
196.2869258
0
ARC
8
DEFAULT_255_1_234
10
27.5843721
20
14.3264651
40
0.1787621
50
196.5661473
51
227.705904
0
ARC
8
DEFAULT_255_1_234
10
27.6007816
20
14.3448155
40
0.2033784
50
227.7652068
51
257.8762805
0
ARC
8
DEFAULT_255_1_234
10
27.6232786
20
14.4391156
40
0.3003081
50
257.4584385
51
270.426602
0
ARC
8
DEFAULT_255_1_234
10
27.6278352
20
14.4680996
40
0.329292
50
269.5962073
51
280.8789248
0
ARC
8
DEFAULT_255_1_234
10
27.6507881
20
14.3534685
40
0.2123908
50
280.6346389
51
299.8595945
0
ARC
8
DEFAULT_255_1_234
10
27.6698788
20
14.3172212
40
0.171457
50
300.3576302
51
314.5517981
0
ARC
8
DEFAULT_255_1_234
10
27.6615848
20
14.3232919
40
0.1816095
50
315.0728369
51
345.0431014
0
ARC
8
DEFAULT_255_1_234
10
27.5692662
20
14.3501841
40
0.2777492
50
344.5986631
51
357.9269593
0
ARC
8
DEFAULT_255_1_234
10
27.4796989
20
14.3563276
40
0.3674917
50
357.4748886
51
0.0231117
0
ARC
8
DEFAULT_255_1_234
10
27.5820098
20
14.3587679
40
0.2651907
50
359.5047933
51
13.4239635
0
ARC
8
DEFAULT_255_1_234
10
27.6686741
20
14.3809478
40
0.1757509
50
12.9498199
51
48.7551375
0
ARC
8
DEFAULT_255_1_234
10
27.6504475
20
14.35604
40
0.2065134
50
49.5088623
51
72.1836453
0
ARC
8
DEFAULT_255_1_234
10
27.6146628
20
14.2498291
40
0.3185836
50
71.9010081
51
84.3554254
0
ARC
8
DEFAULT_255_1_234
10
27.598526
20
14.1137326
40
0.4556151
50
84.0193428
51
89.333121
0
LINE
8
DEFAULT_255_1_234
10
28.6881135
20
15.2086433
11
28.6881135
21
14.0336
0
LINE
8
DEFAULT_255_1_234
10
28.6881135
20
14.0336
11
28.5387232
21
14.0336
0
LINE
8
DEFAULT_255_1_234
10
28.5387232
20
14.0336
11
28.5387232
21
15.0239133
0
LINE
8
DEFAULT_255_1_234
10
28.5387232
20
15.0239133
11
28.2391394
21
14.9138785
0
LINE
8
DEFAULT_255_1_234
10
28.2391394
20
14.9138785
11
28.2391394
21
15.0488117
0
LINE
8
DEFAULT_255_1_234
10
28.2391394
20
15.0488117
11
28.6648215
21
15.2086433
0
LINE
8
DEFAULT_255_1_234
10
28.6648215
20
15.2086433
11
28.6881135
21
15.2086433
0
LINE
8
DEFAULT_255_1_234
10
26.7088628
20
-0.6730789
11
26.7088628
21
-1.449748
0
LINE
8
DEFAULT_255_1_234
10
26.7088628
20
-1.449748
11
26.8711039
21
-1.449748
0
LINE
8
DEFAULT_255_1_234
10
26.8711039
20
-1.449748
11
26.8711039
21
-1.5710272
0
LINE
8
DEFAULT_255_1_234
10
26.8711039
20
-1.5710272
11
26.7088628
21
-1.5710272
0
LINE
8
DEFAULT_255_1_234
10
26.7088628
20
-1.5710272
11
26.7088628
21
-1.8425
0
LINE
8
DEFAULT_255_1_234
10
26.7088628
20
-1.8425
11
26.5594725
21
-1.8425
0
LINE
8
DEFAULT_255_1_234
10
26.5594725
20
-1.8425
11
26.5594725
21
-1.5710272
0
LINE
8
DEFAULT_255_1_234
10
26.5594725
20
-1.5710272
11
26.0269682
21
-1.5710272
0
LINE
8
DEFAULT_255_1_234
10
26.0269682
20
-1.5710272
11
26.0269682
21
-1.4834813
0
LINE
8
DEFAULT_255_1_234
10
26.0269682
20
-1.4834813
11
26.5506375
21
-0.6730789
0
LINE
8
DEFAULT_255_1_234
10
26.5506375
20
-0.6730789
11
26.7088628
21
-0.6730789
0
LINE
8
DEFAULT_255_1_234
10
26.5418026
20
-0.9084088
11
26.1956347
21
-1.449748
0
LINE
8
DEFAULT_255_1_234
10
26.1956347
20
-1.449748
11
26.5594725
21
-1.449748
0
LINE
8
DEFAULT_255_1_234
10
26.5594725
20
-1.449748
11
26.5594725
21
-0.8762819
0
LINE
8
DEFAULT_255_1_234
10
26.5594725
20
-0.8762819
11
26.5418026
21
-0.9084088
0
LINE
8
DEFAULT_255_1_234
10
27.7714618
20
-1.7212208
11
27.7714618
21
-1.8425
0
LINE
8
DEFAULT_255_1_234
10
27.7714618
20
-1.8425
11
27.0052339
21
-1.8425
0
LINE
8
DEFAULT_255_1_234
10
27.0052339
20
-1.8425
11
27.0052339
21
-1.7356779
0
LINE
8
DEFAULT_255_1_234
10
27.0052339
20
-1.7356779
11
27.4100335
21
-1.2859005
0
LINE
8
DEFAULT_255_1_234
10
27.1313322
20
-1.0176405
11
26.9827451
21
-1.0176405
0
LINE
8
DEFAULT_255_1_234
10
27.4975795
20
-1.3814782
11
27.1843417
21
-1.7212208
0
LINE
8
DEFAULT_255_1_234
10
27.1843417
20
-1.7212208
11
27.7714618
21
-1.7212208
0
ARC
8
DEFAULT_255_1_234
10
26.0610169
20
-0.0929473
40
1.8008286
50
318.5132453
51
320.7828378
0
ARC
8
DEFAULT_255_1_234
10
26.5897143
20
-0.5232574
40
1.1191493
50
320.7372736
51
323.9737074
0
ARC
8
DEFAULT_255_1_234
10
26.9817
20
-0.8072639
40
0.6350923
50
323.8961724
51
328.6421089
0
ARC
8
DEFAULT_255_1_234
10
27.1863595
20
-0.9334969
40
0.3946393
50
328.8299013
51
331.789948
0
ARC
8
DEFAULT_255_1_234
10
27.2860774
20
-0.9849491
40
0.2824501
50
331.4255242
51
352.9364833
0
ARC
8
DEFAULT_255_1_234
10
27.2997274
20
-0.9880024
40
0.2685315
50
353.2248685
51
0.0169286
0
ARC
8
DEFAULT_255_1_234
10
27.3207151
20
-0.985705
40
0.2475536
50
359.4866256
51
15.9339782
0
ARC
8
DEFAULT_255_1_234
10
27.3714136
20
-0.9720714
40
0.1950618
50
16.1714718
51
43.5284424
0
ARC
8
DEFAULT_255_1_234
10
27.3791445
20
-0.9643427
40
0.184134
50
43.4415429
51
83.1661404
0
ARC
8
DEFAULT_255_1_234
10
27.3657363
20
-1.0380229
40
0.258926
50
82.160215
51
90.1505798
0
ARC
8
DEFAULT_255_1_234
10
27.362579
20
-1.0917135
40
0.3126255
50
89.5460705
51
102.5418777
0
ARC
8
DEFAULT_255_1_234
10
27.3382876
20
-0.9886335
40
0.2067346
50
102.1739365
51
129.2061916
0
ARC
8
DEFAULT_255_1_234
10
27.3303948
20
-0.9761906
40
0.1921118
50
129.7279328
51
135.7542026
0
ARC
8
DEFAULT_255_1_234
10
27.3425476
20
-0.9858955
40
0.2075944
50
136.175737
51
166.3674722
0
ARC
8
DEFAULT_255_1_234
10
27.4432395
20
-1.0128818
40
0.3118201
50
165.9092917
51
178.8683903
0
ARC
8
DEFAULT_255_1_234
10
27.5297256
20
-1.0175821
40
0.3983935
50
178.438168
51
180.0083905
0
ARC
8
DEFAULT_255_1_234
10
27.3895859
20
-1.0136769
40
0.4068601
50
163.2878735
51
180.5581814
0
ARC
8
DEFAULT_255_1_234
10
27.309412
20
-0.991616
40
0.3237344
50
133.454115
51
162.9470031
0
ARC
8
DEFAULT_255_1_234
10
27.3272661
20
-1.0106
40
0.349795
50
100.7869394
51
133.4384016
0
ARC
8
DEFAULT_255_1_234
10
27.3620433
20
-1.1654681
40
0.5084616
50
89.6605301
51
101.3704185
0
ARC
8
DEFAULT_255_1_234
10
27.3686772
20
-1.1593504
40
0.502348
50
78.2171172
51
90.4130393
0
ARC
8
DEFAULT_255_1_234
10
27.404185
20
-0.9969363
40
0.3361092
50
55.9268222
51
78.4888551
0
ARC
8
DEFAULT_255_1_234
10
27.423829
20
-0.9630676
40
0.2970617
50
47.9292255
51
55.4054003
0
ARC
8
DEFAULT_255_1_234
10
27.4339851
20
-0.9527498
40
0.2825983
50
4.3347696
51
48.0560701
0
ARC
8
DEFAULT_255_1_234
10
27.3244244
20
-0.9697399
40
0.393225
50
359.925209
51
5.5967654
0
ARC
8
DEFAULT_255_1_234
10
27.3673136
20
-0.9641184
40
0.3503892
50
337.8914096
51
358.9967724
0
ARC
8
DEFAULT_255_1_234
10
27.0959548
20
-0.8594294
40
0.6412172
50
326.9135351
51
338.3505194
0
ARC
8
DEFAULT_255_1_234
10
26.6973852
20
-0.6039716
40
1.1146189
50
319.6472867
51
327.095818
0
ARC
8
DEFAULT_255_1_234
10
26.3140855
20
-0.2878
40
1.6114559
50
317.2586784
51
319.9046139
0
ENDSEC
0
EOF