0
SECTION
2
HEADER
9
$MEASUREMENT
70
1
0
ENDSEC
0
SECTION
2
TABLES
0
TABLE
2
LTYPE
0
LTYPE
72
65
70
64
2
CONTINUOUS
3
______
73
0
40
0
0
ENDTAB
0
TABLE
2
LAYER
0
LAYER
2
DEFAULT_255_2_778
70
0
62
255
6
CONTINUOUS
0
LAYER
2
DEFAULT_255_1_234
70
0
62
255
6
CONTINUOUS
0
ENDTAB
0
ENDSEC
0
SECTION
2
ENTITIES
0
LINE
8
DEFAULT_255_2_778
10
7.0760004
20
10.4510499
11
38.8260004
21
10.4510499
0
LINE
8
DEFAULT_255_2_778
10
38.8260004
20
10.4510499
11
38.8260004
21
2.5135499
0
LINE
8
DEFAULT_255_2_778
10
38.8260004
20
2.5135499
11
7.0760004
21
2.5135499
0
LINE
8
DEFAULT_255_2_778
10
7.0760004
20
2.5135499
11
7.0760004
21
10.4510499
0
LINE
8
DEFAULT_255_2_778
10
17.6607
20
10.4510499
11
17.6607
21
2.5135499
0
LINE
8
DEFAULT_255_2_778
10
28.244
20
10.4510499
11
28.244
21
2.5135499
0
LINE
8
DEFAULT_255_2_778
10
20.3065
20
15.7426499
11
20.3065
21
7.8051499
0
LINE
8
DEFAULT_255_2_778
10
25.5982
20
15.7426499
11
25.5982
21
7.8051499
0
LINE
8
DEFAULT_255_2_778
10
22.9523
20
15.7427164
11
22.9523
21
-2.7780836
0
LINE
8
DEFAULT_255_2_778
10
22.9523834
20
6.7467999
11
25.5981834
21
6.7467999
0
LINE
8
DEFAULT_255_2_778
10
25.5981834
20
6.7467999
11
25.5981834
21
-2.7782001
0
LINE
8
DEFAULT_255_2_778
10
22.9523417
20
10.4509875
11
22.2908417
21
8.4665875
0
LINE
8
DEFAULT_255_2_778
10
22.2908417
20
8.4665875
11
23.6137417
21
8.4665875
0
LINE
8
DEFAULT_255_2_778
10
23.6137417
20
8.4665875
11
22.9523417
21
10.4509875
0
LINE
8
DEFAULT_255_2_778
10
15.0148417
20
6.0853375
11
15.0148417
21
2.5134375
0
LINE
8
DEFAULT_255_2_778
10
15.0148417
20
2.5134375
11
14.3533417
21
4.4978375
0
LINE
8
DEFAULT_255_2_778
10
14.3533417
20
4.4978375
11
15.6762417
21
4.4978375
0
LINE
8
DEFAULT_255_2_778
10
15.6762417
20
4.4978375
11
15.0148417
21
2.5134375
0
LINE
8
DEFAULT_255_2_778
10
32.6096625
20
7.8713062
11
36.1815625
21
2.5135062
0
LINE
8
DEFAULT_255_2_778
10
36.1815625
20
2.5135062
11
35.6523625
21
4.5640062
0
LINE
8
DEFAULT_255_2_778
10
35.6523625
20
4.5640062
11
34.5278625
21
3.7703062
0
LINE
8
DEFAULT_255_2_778
10
34.5278625
20
3.7703062
11
36.1815625
21
2.5135062
0
LINE
8
DEFAULT_255_2_778
10
25.5982417
20
2.5134875
11
24.9367417
21
4.4978875
0
LINE
8
DEFAULT_255_2_778
10
24.9367417
20
4.4978875
11
26.2596417
21
4.4978875
0
LINE
8
DEFAULT_255_2_778
10
26.2596417
20
4.4978875
11
25.5982417
21
2.5134875
0
LINE
8
DEFAULT_255_2_778
10
19.6450417
20
7.8052
11
20.9679417
21
7.8052
0
LINE
8
DEFAULT_255_2_778
10
24.9367417
20
7.8052
11
26.2596417
21
7.8052
0
LINE
8
DEFAULT_255_2_778
10
38.8273188
20
8.8635166
11
39.1213188
21
10.4510166
0
LINE
8
DEFAULT_255_2_778
10
39.1213188
20
10.4510166
11
39.5623188
21
7.8052166
0
LINE
8
DEFAULT_255_2_778
10
39.5623188
20
7.8052166
11
40.0034188
21
10.4510166
0
LINE
8
DEFAULT_255_2_778
10
40.0034188
20
10.4510166
11
40.4444188
21
7.8052166
0
LINE
8
DEFAULT_255_2_778
10
40.4444188
20
7.8052166
11
40.8855188
21
10.4510166
0
LINE
8
DEFAULT_255_2_778
10
40.8855188
20
10.4510166
11
41.3266188
21
7.8052166
0
LINE
8
DEFAULT_255_2_778
10
41.3266188
20
7.8052166
11
41.4737188
21
8.8635166
0
LINE
8
DEFAULT_255_2_778
10
7.0772834
20
9.3927166
11
6.7833834
21
7.8052166
0
LINE
8
DEFAULT_255_2_778
10
6.7833834
20
7.8052166
11
6.3422834
21
10.4510166
0
LINE
8
DEFAULT_255_2_778
10
6.3422834
20
10.4510166
11
5.9012834
21
7.8052166
0
LINE
8
DEFAULT_255_2_778
10
5.9012834
20
7.8052166
11
5.4601834
21
10.4510166
0
LINE
8
DEFAULT_255_2_778
10
5.4601834
20
10.4510166
11
5.0190834
21
7.8052166
0
LINE
8
DEFAULT_255_2_778
10
5.0190834
20
7.8052166
11
4.5780834
21
10.4510166
0
LINE
8
DEFAULT_255_2_778
10
4.5780834
20
10.4510166
11
4.4314834
21
9.3927166
0
ARC
8
DEFAULT_255_2_778
10
15.0115392
20
7.0136632
40
0.8790985
50
135.6657692
51
180.1503572
0
ARC
8
DEFAULT_255_2_778
10
15.0119842
20
7.014209
40
0.8790356
50
90.2249452
51
135.7114825
0
ARC
8
DEFAULT_255_2_778
10
15.0143107
20
6.9959386
40
0.8973177
50
89.9978894
51
90.3689202
0
ARC
8
DEFAULT_255_2_778
10
15.0166223
20
7.0143041
40
0.8789551
50
45.6619653
51
90.1485273
0
ARC
8
DEFAULT_255_2_778
10
15.0170557
20
7.0137115
40
0.8790763
50
0.2252168
51
45.709162
0
ARC
8
DEFAULT_255_2_778
10
14.9988262
20
7.0113893
40
0.8973177
50
359.9978894
51
0.3689202
0
ARC
8
DEFAULT_255_2_778
10
15.017149
20
7.0090828
40
0.8789977
50
315.6642148
51
0.1481882
0
ARC
8
DEFAULT_255_2_778
10
15.016668
20
7.0085087
40
0.8789408
50
270.227196
51
315.7128927
0
ARC
8
DEFAULT_255_2_778
10
15.014377
20
7.0264752
40
0.896919
50
269.9978796
51
270.3689996
0
ARC
8
DEFAULT_255_2_778
10
15.0120419
20
7.0086944
40
0.8791411
50
225.6680186
51
270.1500181
0
ARC
8
DEFAULT_255_2_778
10
15.0113554
20
7.0090276
40
0.8789
50
180.2269245
51
225.7152133
0
ARC
8
DEFAULT_255_2_778
10
15.0293627
20
7.011323
40
0.896919
50
179.9978796
51
180.3689996
0
LINE
8
DEFAULT_255_2_778
10
14.1324438
20
7.0113562
11
14.1324438
21
7.0113562
0
LINE
8
DEFAULT_255_2_778
10
13.6918834
20
7.0114583
11
15.0147834
21
8.3343583
0
LINE
8
DEFAULT_255_2_778
10
15.0147834
20
8.3343583
11
16.3376834
21
7.0114583
0
LINE
8
DEFAULT_255_2_778
10
15.0148
20
10.4510333
11
15.0148
21
8.3343333
0
LINE
8
DEFAULT_255_2_778
10
11.0459855
20
6.6476737
11
9.7207855
21
10.3930737
0
LINE
8
DEFAULT_255_2_778
10
9.7207855
20
10.3930737
11
11.0129855
21
8.7973737
0
LINE
8
DEFAULT_255_2_778
10
11.0129855
20
8.7973737
11
9.7051855
21
8.3014737
0
LINE
8
DEFAULT_255_2_778
10
9.7051855
20
8.3014737
11
9.7210855
21
10.3931737
0
ARC
8
DEFAULT_255_2_778
10
11.2934714
20
5.779713
40
0.8969274
50
10.4080275
51
18.0221281
0
ARC
8
DEFAULT_255_2_778
10
11.3104818
20
5.7828635
40
0.8796277
50
0.0086256
51
10.4063602
0
ARC
8
DEFAULT_255_2_778
10
11.3102172
20
5.7835385
40
0.8798925
50
290.8452645
51
359.9646733
0
ARC
8
DEFAULT_255_2_778
10
11.3006359
20
5.8063185
40
0.9045915
50
288.0015245
51
290.8989734
0
ARC
8
DEFAULT_255_2_778
10
11.3026287
20
5.7991479
40
0.8971562
50
280.4098249
51
288.0220104
0
ARC
8
DEFAULT_255_2_778
10
11.3057958
20
5.7820441
40
0.8797617
50
270.0086198
51
280.4082247
0
ARC
8
DEFAULT_255_2_778
10
11.3064344
20
5.7820462
40
0.879764
50
200.83933
51
269.967031
0
ARC
8
DEFAULT_255_2_778
10
11.3294717
20
5.7917568
40
0.9047491
50
197.9977155
51
200.8950519
0
ARC
8
DEFAULT_255_2_778
10
11.3219145
20
5.7897035
40
0.8969274
50
190.4080275
51
198.0221281
0
ARC
8
DEFAULT_255_2_778
10
11.3049041
20
5.786553
40
0.8796277
50
180.0086256
51
190.4063602
0
ARC
8
DEFAULT_255_2_778
10
11.3051687
20
5.7858781
40
0.8798925
50
110.8452645
51
179.9646733
0
ARC
8
DEFAULT_255_2_778
10
11.31475
20
5.7630981
40
0.9045915
50
108.0015245
51
110.8989734
0
ARC
8
DEFAULT_255_2_778
10
11.3126882
20
5.7704867
40
0.8969274
50
100.4080275
51
108.0221281
0
ARC
8
DEFAULT_255_2_778
10
11.3095377
20
5.7874971
40
0.8796277
50
90.0086256
51
100.4063602
0
ARC
8
DEFAULT_255_2_778
10
11.3088628
20
5.7872325
40
0.8798925
50
20.8452645
51
89.9646733
0
ARC
8
DEFAULT_255_2_778
10
11.2860828
20
5.7776513
40
0.9045915
50
18.0015245
51
20.8989734
0
LINE
8
DEFAULT_255_2_778
10
12.1463929
20
6.0572083
11
12.1463929
21
6.0572083
0
LINE
8
DEFAULT_255_2_778
10
12.5674269
20
6.1934904
11
11.7181269
21
4.5264904
0
LINE
8
DEFAULT_255_2_778
10
11.7181269
20
4.5264904
11
10.0511269
21
5.3758904
0
LINE
8
DEFAULT_255_2_778
10
12.3721618
20
2.5134411
11
11.7180618
21
4.5265411
0
LINE
8
DEFAULT_255_2_778
10
35.255422
20
7.8052241
11
36.183722
21
10.3932241
0
LINE
8
DEFAULT_255_2_778
10
36.183722
20
10.3932241
11
34.891822
21
8.7974241
0
LINE
8
DEFAULT_255_2_778
10
34.891822
20
8.7974241
11
36.199622
21
8.3015241
0
LINE
8
DEFAULT_255_2_778
10
36.199622
20
8.3015241
11
36.183722
21
10.3932241
0
ARC
8
DEFAULT_255_2_778
10
34.9590211
20
6.93918
40
0.8794696
50
305.6363357
51
342.1368203
0
ARC
8
DEFAULT_255_2_778
10
34.9585209
20
6.9395606
40
0.8800704
50
270.0380466
51
305.6483631
0
ARC
8
DEFAULT_255_2_778
10
34.9592377
20
6.9391182
40
0.8796278
50
259.5936398
51
269.9913744
0
ARC
8
DEFAULT_255_2_778
10
34.9623882
20
6.9561286
40
0.8969274
50
251.9778719
51
259.5919725
0
ARC
8
DEFAULT_255_2_778
10
34.9546659
20
6.9402789
40
0.8794696
50
215.6363357
51
252.1368203
0
ARC
8
DEFAULT_255_2_778
10
34.9550465
20
6.9407791
40
0.8800704
50
180.0380466
51
215.6483631
0
ARC
8
DEFAULT_255_2_778
10
34.9546041
20
6.9400623
40
0.8796278
50
169.5936398
51
179.9913744
0
ARC
8
DEFAULT_255_2_778
10
34.9716145
20
6.9369118
40
0.8969274
50
161.9778719
51
169.5919725
0
ARC
8
DEFAULT_255_2_778
10
34.9557648
20
6.9446341
40
0.8794696
50
125.6363357
51
162.1368203
0
ARC
8
DEFAULT_255_2_778
10
34.956265
20
6.9442535
40
0.8800704
50
90.0380466
51
125.6483631
0
ARC
8
DEFAULT_255_2_778
10
34.9555482
20
6.9446959
40
0.8796278
50
79.5936398
51
89.9913744
0
ARC
8
DEFAULT_255_2_778
10
34.9523977
20
6.9276855
40
0.8969274
50
71.9778719
51
79.5919725
0
ARC
8
DEFAULT_255_2_778
10
34.96012
20
6.9435352
40
0.8794696
50
35.6363357
51
72.1368203
0
ARC
8
DEFAULT_255_2_778
10
34.9597394
20
6.943035
40
0.8800704
50
0.0380466
51
35.6483631
0
ARC
8
DEFAULT_255_2_778
10
34.9601818
20
6.9437518
40
0.8796278
50
349.5936398
51
359.9913744
0
ARC
8
DEFAULT_255_2_778
10
34.9431714
20
6.9469023
40
0.8969274
50
341.9778719
51
349.5919725
0
LINE
8
DEFAULT_255_2_778
10
35.7960929
20
6.6694071
11
35.7960929
21
6.6694071
0
LINE
8
DEFAULT_255_2_778
10
33.7009269
20
7.3507904
11
34.5503269
21
5.6837904
0
LINE
8
DEFAULT_255_2_778
10
34.5503269
20
5.6837904
11
36.2172269
21
6.5331904
0
LINE
8
DEFAULT_255_2_778
10
33.5325162
20
2.5135
11
34.5611162
21
5.6885
0
ARC
8
DEFAULT_255_2_778
10
32.1216328
20
8.6238181
40
0.8850951
50
194.5281096
51
214.0806438
0
ARC
8
DEFAULT_255_2_778
10
32.1135027
20
8.6209881
40
0.8765154
50
183.0341332
51
194.4823451
0
ARC
8
DEFAULT_255_2_778
10
32.1162304
20
8.6211865
40
0.8792498
50
179.9994076
51
183.0376413
0
ARC
8
DEFAULT_255_2_778
10
32.1162256
20
8.6216902
40
0.8792454
50
132.1089703
51
180.0322305
0
ARC
8
DEFAULT_255_2_778
10
32.1275743
20
8.6086289
40
0.8965451
50
123.9830147
51
132.0873076
0
ARC
8
DEFAULT_255_2_778
10
32.1224243
20
8.6189672
40
0.8850951
50
104.5281096
51
124.0806438
0
ARC
8
DEFAULT_255_2_778
10
32.1195942
20
8.6270973
40
0.8765154
50
93.0341332
51
104.4823451
0
ARC
8
DEFAULT_255_2_778
10
32.1197927
20
8.6243696
40
0.8792498
50
89.9994076
51
93.0376413
0
ARC
8
DEFAULT_255_2_778
10
32.1202964
20
8.6243744
40
0.8792454
50
42.1089703
51
90.0322305
0
ARC
8
DEFAULT_255_2_778
10
32.107235
20
8.6130257
40
0.8965451
50
33.9830147
51
42.0873076
0
ARC
8
DEFAULT_255_2_778
10
32.1175733
20
8.6181757
40
0.8850951
50
14.5281096
51
34.0806438
0
ARC
8
DEFAULT_255_2_778
10
32.1257035
20
8.6210058
40
0.8765154
50
3.0341332
51
14.4823451
0
ARC
8
DEFAULT_255_2_778
10
32.1229757
20
8.6208073
40
0.8792498
50
359.9994076
51
3.0376413
0
ARC
8
DEFAULT_255_2_778
10
32.1229805
20
8.6203036
40
0.8792454
50
312.1089703
51
0.0322305
0
ARC
8
DEFAULT_255_2_778
10
32.1116318
20
8.633365
40
0.8965451
50
303.9830147
51
312.0873076
0
ARC
8
DEFAULT_255_2_778
10
32.1167949
20
8.6230159
40
0.8850789
50
284.5270954
51
304.0803378
0
ARC
8
DEFAULT_255_2_778
10
32.1195891
20
8.6150015
40
0.8766201
50
273.0342355
51
284.4816989
0
ARC
8
DEFAULT_255_2_778
10
32.1193833
20
8.6177442
40
0.87937
50
269.9996544
51
273.0381653
0
ARC
8
DEFAULT_255_2_778
10
32.1188456
20
8.6175242
40
0.8791501
50
222.1062097
51
270.034695
0
ARC
8
DEFAULT_255_2_778
10
32.1316076
20
8.6285371
40
0.8960026
50
213.9731521
51
222.0814931
0
LINE
8
DEFAULT_255_2_778
10
31.3885531
20
8.1278469
11
31.3885531
21
8.1278469
0
LINE
8
DEFAULT_255_2_778
10
31.0221492
20
7.8811629
11
31.3791492
21
9.7176629
0
LINE
8
DEFAULT_255_2_778
10
31.3791492
20
9.7176629
11
33.2156492
21
9.3606629
0
LINE
8
DEFAULT_255_2_778
10
33.5357
20
10.4510166
11
33.5357
21
7.8052166
0
LINE
8
DEFAULT_255_2_778
10
32.8742417
20
7.8052
11
34.1971417
21
7.8052
0
LINE
8
DEFAULT_255_2_778
10
30.8898531
20
10.4510021
11
31.3859531
21
9.7234021
0
LINE
8
DEFAULT_255_2_778
10
12.369
20
10.4510166
11
12.369
21
7.8052166
0
LINE
8
DEFAULT_255_2_778
10
11.7075417
20
7.8052
11
13.0304417
21
7.8052
0
LINE
8
DEFAULT_255_2_778
10
7.0772834
20
3.3073
11
4.4314834
21
3.3073
0
LINE
8
DEFAULT_255_2_778
10
7.0772834
20
4.8948
11
4.4314834
21
4.8948
0
LINE
8
DEFAULT_255_2_778
10
4.4315
20
2.5135166
11
4.4315
21
5.1593166
0
ARC
8
DEFAULT_255_2_778
10
4.4300557
20
5.8222443
40
0.6600157
50
89.871003
51
180.128997
0
ARC
8
DEFAULT_255_2_778
10
4.432949
20
5.8222655
40
0.6599943
50
359.8691577
51
90.1221758
0
ARC
8
DEFAULT_255_2_778
10
4.4329705
20
5.8193295
40
0.6599728
50
269.8759594
51
0.1240406
0
ARC
8
DEFAULT_255_2_778
10
4.4300345
20
5.8193508
40
0.6599942
50
179.8778094
51
270.1308423
0
LINE
8
DEFAULT_255_2_778
10
3.7700417
20
5.8207583
11
3.7700417
21
5.8207583
0
LINE
8
DEFAULT_255_1_234
10
17.9285137
20
14.6291433
11
17.9285137
21
13.4541
0
LINE
8
DEFAULT_255_1_234
10
17.9285137
20
13.4541
11
17.7791234
21
13.4541
0
LINE
8
DEFAULT_255_1_234
10
17.7791234
20
13.4541
11
17.7791234
21
14.4444133
0
LINE
8
DEFAULT_255_1_234
10
17.7791234
20
14.4444133
11
17.4795396
21
14.3343785
0
LINE
8
DEFAULT_255_1_234
10
17.4795396
20
14.3343785
11
17.4795396
21
14.4693117
0
LINE
8
DEFAULT_255_1_234
10
17.4795396
20
14.4693117
11
17.9052217
21
14.6291433
0
LINE
8
DEFAULT_255_1_234
10
17.9052217
20
14.6291433
11
17.9285137
21
14.6291433
0
LINE
8
DEFAULT_255_1_234
10
18.5798877
20
13.9898169
11
18.5798877
21
14.1110962
0
LINE
8
DEFAULT_255_1_234
10
18.5798877
20
14.1110962
11
18.6915289
21
14.1110962
0
LINE
8
DEFAULT_255_1_234
10
18.5011767
20
14.3167087
11
18.3525895
21
14.3167087
0
LINE
8
DEFAULT_255_1_234
10
18.3421482
20
13.7625188
11
18.4915386
21
13.7625188
0
LINE
8
DEFAULT_255_1_234
10
18.6915289
20
13.9898169
11
18.5798877
21
13.9898169
0
ARC
8
DEFAULT_255_1_234
10
18.6886155
20
14.4503713
40
0.3392876
50
270.4919872
51
281.8951556
0
ARC
8
DEFAULT_255_1_234
10
18.7127417
20
14.3401702
40
0.2264817
50
281.6691735
51
301.2943132
0
ARC
8
DEFAULT_255_1_234
10
18.7297627
20
14.3090304
40
0.1910381
50
301.7833094
51
311.7545298
0
ARC
8
DEFAULT_255_1_234
10
18.7389203
20
14.2988748
40
0.1773635
50
311.7323931
51
354.2802411
0
ARC
8
DEFAULT_255_1_234
10
18.6662828
20
14.3113722
40
0.2509385
50
353.0937916
51
0.1181479
0
ARC
8
DEFAULT_255_1_234
10
18.6201613
20
14.3161386
40
0.2970898
50
359.1805295
51
15.0453146
0
ARC
8
DEFAULT_255_1_234
10
18.754745
20
14.3553992
40
0.1569564
50
13.9577229
51
77.6713066
0
ARC
8
DEFAULT_255_1_234
10
18.7160979
20
14.2168949
40
0.3006298
50
76.1116566
51
90.7026153
0
ARC
8
DEFAULT_255_1_234
10
18.7101817
20
14.2442545
40
0.2732568
50
89.5324876
51
103.531937
0
ARC
8
DEFAULT_255_1_234
10
18.6901261
20
14.3241884
40
0.1908508
50
103.2931773
51
133.5619022
0
ARC
8
DEFAULT_255_1_234
10
18.685675
20
14.3301375
40
0.1834746
50
133.8349307
51
173.5344437
0
ARC
8
DEFAULT_255_1_234
10
18.7579793
20
14.3173213
40
0.2568033
50
172.5096846
51
180.1366907
0
ARC
8
DEFAULT_255_1_234
10
18.6628687
20
14.3207622
40
0.3103056
50
155.3484492
51
180.7484736
0
ARC
8
DEFAULT_255_1_234
10
18.6579776
20
14.3178846
40
0.3070957
50
131.5744599
51
154.4798489
0
ARC
8
DEFAULT_255_1_234
10
18.6892923
20
14.286231
40
0.3515643
50
96.9875458
51
131.9690667
0
ARC
8
DEFAULT_255_1_234
10
18.7112403
20
14.1616636
40
0.4779224
50
89.8596053
51
97.7825159
0
ARC
8
DEFAULT_255_1_234
10
18.7160466
20
14.1354616
40
0.5041361
50
78.3655447
51
90.4131539
0
ARC
8
DEFAULT_255_1_234
10
18.7518384
20
14.3013887
40
0.3344039
50
56.6229102
51
78.638727
0
ARC
8
DEFAULT_255_1_234
10
18.7733328
20
14.3389805
40
0.2912001
50
47.0253525
51
56.0854072
0
ARC
8
DEFAULT_255_1_234
10
18.7753108
20
14.3429223
40
0.2869704
50
10.9208013
51
46.7778124
0
ARC
8
DEFAULT_255_1_234
10
18.6389174
20
14.3113857
40
0.426899
50
359.6364486
51
11.6087304
0
ARC
8
DEFAULT_255_1_234
10
18.8224018
20
14.3098752
40
0.243409
50
332.3549906
51
359.7179418
0
ARC
8
DEFAULT_255_1_234
10
18.757362
20
14.3407142
40
0.3153459
50
325.2333722
51
332.8745602
0
ARC
8
DEFAULT_255_1_234
10
18.7726244
20
14.3300828
40
0.2967456
50
292.9802137
51
325.2392345
0
ARC
8
DEFAULT_255_1_234
10
18.7451617
20
14.3834863
40
0.3566604
50
292.5402179
51
293.6924929
0
ARC
8
DEFAULT_255_1_234
10
18.7844213
20
13.7380091
40
0.3307468
50
57.6435486
51
72.8625112
0
ARC
8
DEFAULT_255_1_234
10
18.8198713
20
13.7954549
40
0.2632492
50
36.7248896
51
57.4697979
0
ARC
8
DEFAULT_255_1_234
10
18.8187346
20
13.796722
40
0.2634081
50
8.0545065
51
36.356114
0
ARC
8
DEFAULT_255_1_234
10
18.7324531
20
13.7812174
40
0.3510261
50
359.8320645
51
8.5869982
0
ARC
8
DEFAULT_255_1_234
10
18.6949307
20
13.7764101
40
0.3885653
50
343.9829931
51
0.5571613
0
ARC
8
DEFAULT_255_1_234
10
18.7835504
20
13.7521438
40
0.2966924
50
311.6359546
51
343.7651759
0
ARC
8
DEFAULT_255_1_234
10
18.7457074
20
13.7948102
40
0.3537231
50
279.7829875
51
311.6255694
0
ARC
8
DEFAULT_255_1_234
10
18.715585
20
13.938528
40
0.5004971
50
269.7286406
51
280.3856417
0
ARC
8
DEFAULT_255_1_234
10
18.7093922
20
13.9343996
40
0.4963778
50
256.6828919
51
270.4412052
0
ARC
8
DEFAULT_255_1_234
10
18.6755218
20
13.7959394
40
0.3538406
50
229.4223008
51
256.8556159
0
ARC
8
DEFAULT_255_1_234
10
18.6340611
20
13.7492736
40
0.2914296
50
181.818294
51
229.6455059
0
ARC
8
DEFAULT_255_1_234
10
18.7380567
20
13.7623496
40
0.3959084
50
179.9755256
51
183.2323064
0
ARC
8
DEFAULT_255_1_234
10
18.7208313
20
13.7603037
40
0.2293034
50
179.4465117
51
196.2869258
0
ARC
8
DEFAULT_255_1_234
10
18.6720721
20
13.7469651
40
0.1787621
50
196.5661473
51
227.705904
0
ARC
8
DEFAULT_255_1_234
10
18.6884816
20
13.7653155
40
0.2033784
50
227.7652068
51
257.8762805
0
ARC
8
DEFAULT_255_1_234
10
18.7109786
20
13.8596156
40
0.3003081
50
257.4584385
51
270.426602
0
ARC
8
DEFAULT_255_1_234
10
18.7155352
20
13.8885996
40
0.329292
50
269.5962073
51
280.8789248
0
ARC
8
DEFAULT_255_1_234
10
18.7384881
20
13.7739685
40
0.2123908
50
280.6346389
51
299.8595945
0
ARC
8
DEFAULT_255_1_234
10
18.7575788
20
13.7377212
40
0.171457
50
300.3576302
51
314.5517981
0
ARC
8
DEFAULT_255_1_234
10
18.7492848
20
13.7437919
40
0.1816095
50
315.0728369
51
345.0431014
0
ARC
8
DEFAULT_255_1_234
10
18.6569662
20
13.7706841
40
0.2777492
50
344.5986631
51
357.9269593
0
ARC
8
DEFAULT_255_1_234
10
18.5673989
20
13.7768276
40
0.3674917
50
357.4748886
51
0.0231117
0
ARC
8
DEFAULT_255_1_234
10
18.6697098
20
13.7792679
40
0.2651907
50
359.5047933
51
13.4239635
0
ARC
8
DEFAULT_255_1_234
10
18.7563741
20
13.8014478
40
0.1757509
50
12.9498199
51
48.7551375
0
ARC
8
DEFAULT_255_1_234
10
18.7381475
20
13.77654
40
0.2065134
50
49.5088623
51
72.1836453
0
ARC
8
DEFAULT_255_1_234
10
18.7023628
20
13.6703291
40
0.3185836
50
71.9010081
51
84.3554254
0
ARC
8
DEFAULT_255_1_234
10
18.686226
20
13.5342326
40
0.4556151
50
84.0193428
51
89.333121
0
LINE
8
DEFAULT_255_1_234
10
19.4746233
20
14.0098963
11
19.3557536
21
14.0404169
0
LINE
8
DEFAULT_255_1_234
10
19.3557536
20
14.0404169
11
19.4151885
21
14.6235211
0
LINE
8
DEFAULT_255_1_234
10
19.4151885
20
14.6235211
11
20.0143562
21
14.6235211
0
LINE
8
DEFAULT_255_1_234
10
20.0143562
20
14.6235211
11
20.0143562
21
14.4861784
0
LINE
8
DEFAULT_255_1_234
10
20.0143562
20
14.4861784
11
19.5412868
21
14.4861784
0
LINE
8
DEFAULT_255_1_234
10
19.5412868
20
14.4861784
11
19.5059471
21
14.1673184
0
LINE
8
DEFAULT_255_1_234
10
19.3139886
20
13.7617156
11
19.454544
21
13.7617156
0
LINE
8
DEFAULT_255_1_234
10
19.5139789
20
14.0420232
11
19.4746233
21
14.0098963
0
ARC
8
DEFAULT_255_1_234
10
19.6914255
20
13.849323
40
0.3681349
50
93.7182161
51
120.2538958
0
ARC
8
DEFAULT_255_1_234
10
19.7008518
20
13.7685394
40
0.449379
50
89.9660152
51
94.2496022
0
ARC
8
DEFAULT_255_1_234
10
19.7049252
20
13.8274549
40
0.390482
50
73.8043271
51
90.5585896
0
ARC
8
DEFAULT_255_1_234
10
19.7284149
20
13.9132602
40
0.3015334
50
41.3071453
51
73.5430202
0
ARC
8
DEFAULT_255_1_234
10
19.6867976
20
13.8774324
40
0.3564457
50
13.5075983
51
41.2174222
0
ARC
8
DEFAULT_255_1_234
10
19.522618
20
13.8344486
40
0.5261351
50
1.1331335
51
13.8829381
0
ARC
8
DEFAULT_255_1_234
10
19.3814549
20
13.8268665
40
0.6674378
50
359.9919444
51
1.544251
0
ARC
8
DEFAULT_255_1_234
10
19.5091375
20
13.822728
40
0.5397702
50
347.8572367
51
0.4293338
0
ARC
8
DEFAULT_255_1_234
10
19.6841693
20
13.7830736
40
0.3603188
50
323.673004
51
348.1672506
0
ARC
8
DEFAULT_255_1_234
10
19.7136201
20
13.7651168
40
0.3259678
50
316.8171152
51
323.1492751
0
ARC
8
DEFAULT_255_1_234
10
19.719739
20
13.761446
40
0.3189975
50
281.8396411
51
316.5457803
0
ARC
8
DEFAULT_255_1_234
10
19.6821654
20
13.9169762
40
0.4789527
50
269.5770101
51
282.4214771
0
ARC
8
DEFAULT_255_1_234
10
19.6750465
20
13.8956125
40
0.45759
50
256.2427136
51
270.4486331
0
ARC
8
DEFAULT_255_1_234
10
19.6451368
20
13.7756229
40
0.3339303
50
228.9023911
51
256.3314342
0
ARC
8
DEFAULT_255_1_234
10
19.63776
20
13.7639746
40
0.32031
50
193.753695
51
228.5271154
0
ARC
8
DEFAULT_255_1_234
10
19.7615554
20
13.80028
40
0.4492253
50
184.924711
51
194.497588
0
ARC
8
DEFAULT_255_1_234
10
19.7808121
20
13.8038591
40
0.3289787
50
187.3600538
51
198.6732863
0
ARC
8
DEFAULT_255_1_234
10
19.6758415
20
13.7674674
40
0.217884
50
198.4451669
51
217.794479
0
ARC
8
DEFAULT_255_1_234
10
19.646259
20
13.7465085
40
0.1816698
50
218.2887171
51
228.5612368
0
ARC
8
DEFAULT_255_1_234
10
19.6560377
20
13.7596963
40
0.1980329
50
228.9654866
51
258.1234728
0
ARC
8
DEFAULT_255_1_234
10
19.6766087
20
13.8477833
40
0.2884748
50
257.7258293
51
270.401361
0
ARC
8
DEFAULT_255_1_234
10
19.6810974
20
13.8032821
40
0.2439788
50
269.4204404
51
286.4209037
0
ARC
8
DEFAULT_255_1_234
10
19.6959461
20
13.7493657
40
0.1880666
50
286.7251356
51
320.600362
0
ARC
8
DEFAULT_255_1_234
10
19.6576286
20
13.7804595
40
0.2374121
50
320.6712579
51
344.5441685
0
ARC
8
DEFAULT_255_1_234
10
19.5419612
20
13.8144045
40
0.3579479
50
344.2412205
51
356.7357071
0
ARC
8
DEFAULT_255_1_234
10
19.4170761
20
13.8247444
40
0.4832297
50
356.3548756
51
0.0500261
0
ARC
8
DEFAULT_255_1_234
10
19.550727
20
13.827865
40
0.3495889
50
359.5576869
51
12.953486
0
ARC
8
DEFAULT_255_1_234
10
19.6562167
20
13.8534434
40
0.2410532
50
12.6490276
51
41.6081334
0
ARC
8
DEFAULT_255_1_234
10
19.6792538
20
13.8730321
40
0.2108218
50
41.7850273
51
85.9892764
0
ARC
8
DEFAULT_255_1_234
10
19.6669275
20
13.7917462
40
0.2928454
50
84.6957577
51
90.0676183
0
ARC
8
DEFAULT_255_1_234
10
19.6645759
20
13.7248716
40
0.3597255
50
89.6804936
51
99.1614436
0
ARC
8
DEFAULT_255_1_234
10
19.644039
20
13.8476131
40
0.235281
50
98.9830931
51
113.8908934
0
ARC
8
DEFAULT_255_1_234
10
19.62108
20
13.9017587
40
0.176479
50
114.1950727
51
127.3641004
0
LINE
8
DEFAULT_255_1_234
10
20.9854119
20
-1.7212208
11
20.9854119
21
-1.8425
0
LINE
8
DEFAULT_255_1_234
10
20.9854119
20
-1.8425
11
20.219184
21
-1.8425
0
LINE
8
DEFAULT_255_1_234
10
20.219184
20
-1.8425
11
20.219184
21
-1.7356779
0
LINE
8
DEFAULT_255_1_234
10
20.219184
20
-1.7356779
11
20.6239836
21
-1.2859005
0
LINE
8
DEFAULT_255_1_234
10
20.3452823
20
-1.0176405
11
20.1966952
21
-1.0176405
0
LINE
8
DEFAULT_255_1_234
10
20.7115296
20
-1.3814782
11
20.3982918
21
-1.7212208
0
LINE
8
DEFAULT_255_1_234
10
20.3982918
20
-1.7212208
11
20.9854119
21
-1.7212208
0
ARC
8
DEFAULT_255_1_234
10
19.274967
20
-0.0929473
40
1.8008286
50
318.5132453
51
320.7828378
0
ARC
8
DEFAULT_255_1_234
10
19.8036644
20
-0.5232574
40
1.1191493
50
320.7372736
51
323.9737074
0
ARC
8
DEFAULT_255_1_234
10
20.1956501
20
-0.8072639
40
0.6350923
50
323.8961724
51
328.6421089
0
ARC
8
DEFAULT_255_1_234
10
20.4003096
20
-0.9334969
40
0.3946393
50
328.8299013
51
331.789948
0
ARC
8
DEFAULT_255_1_234
10
20.5000274
20
-0.9849491
40
0.2824501
50
331.4255242
51
352.9364833
0
ARC
8
DEFAULT_255_1_234
10
20.5136775
20
-0.9880024
40
0.2685315
50
353.2248685
51
0.0169286
0
ARC
8
DEFAULT_255_1_234
10
20.5346652
20
-0.985705
40
0.2475536
50
359.4866256
51
15.9339782
0
ARC
8
DEFAULT_255_1_234
10
20.5853637
20
-0.9720714
40
0.1950618
50
16.1714718
51
43.5284424
0
ARC
8
DEFAULT_255_1_234
10
20.5930946
20
-0.9643427
40
0.184134
50
43.4415429
51
83.1661404
0
ARC
8
DEFAULT_255_1_234
10
20.5796864
20
-1.0380229
40
0.258926
50
82.160215
51
90.1505798
0
ARC
8
DEFAULT_255_1_234
10
20.5765291
20
-1.0917135
40
0.3126255
50
89.5460705
51
102.5418777
0
ARC
8
DEFAULT_255_1_234
10
20.5522377
20
-0.9886335
40
0.2067346
50
102.1739365
51
129.2061916
0
ARC
8
DEFAULT_255_1_234
10
20.5443449
20
-0.9761906
40
0.1921118
50
129.7279328
51
135.7542026
0
ARC
8
DEFAULT_255_1_234
10
20.5564977
20
-0.9858955
40
0.2075944
50
136.175737
51
166.3674722
0
ARC
8
DEFAULT_255_1_234
10
20.6571896
20
-1.0128818
40
0.3118201
50
165.9092917
51
178.8683903
0
ARC
8
DEFAULT_255_1_234
10
20.7436757
20
-1.0175821
40
0.3983935
50
178.438168
51
180.0083905
0
ARC
8
DEFAULT_255_1_234
10
20.6035359
20
-1.0136769
40
0.4068601
50
163.2878735
51
180.5581814
0
ARC
8
DEFAULT_255_1_234
10
20.5233621
20
-0.991616
40
0.3237344
50
133.454115
51
162.9470031
0
ARC
8
DEFAULT_255_1_234
10
20.5412162
20
-1.0106
40
0.349795
50
100.7869394
51
133.4384016
0
ARC
8
DEFAULT_255_1_234
10
20.5759934
20
-1.1654681
40
0.5084616
50
89.6605301
51
101.3704185
0
ARC
8
DEFAULT_255_1_234
10
20.5826273
20
-1.1593504
40
0.502348
50
78.2171172
51
90.4130393
0
ARC
8
DEFAULT_255_1_234
10
20.6181351
20
-0.9969363
40
0.3361092
50
55.9268222
51
78.4888551
0
ARC
8
DEFAULT_255_1_234
10
20.6377791
20
-0.9630676
40
0.2970617
50
47.9292255
51
55.4054003
0
ARC
8
DEFAULT_255_1_234
10
20.6479352
20
-0.9527498
40
0.2825983
50
4.3347696
51
48.0560701
0
ARC
8
DEFAULT_255_1_234
10
20.5383745
20
-0.9697399
40
0.393225
50
359.925209
51
5.5967654
0
ARC
8
DEFAULT_255_1_234
10
20.5812637
20
-0.9641184
40
0.3503892
50
337.8914096
51
358.9967724
0
ARC
8
DEFAULT_255_1_234
10
20.3099049
20
-0.8594294
40
0.6412172
50
326.9135351
51
338.3505194
0
ARC
8
DEFAULT_255_1_234
10
19.9113353
20
-0.6039716
40
1.1146189
50
319.6472867
51
327.095818
0
ARC
8
DEFAULT_255_1_234
10
19.5280356
20
-0.2878
40
1.6114559
50
317.2586784
51
319.9046139
0
LINE
8
DEFAULT_255_1_234
10
21.7701127
20
-0.6730789
11
21.7701127
21
-1.449748
0
LINE
8
DEFAULT_255_1_234
10
21.7701127
20
-1.449748
11
21.9323538
21
-1.449748
0
LINE
8
DEFAULT_255_1_234
10
21.9323538
20
-1.449748
11
21.9323538
21
-1.5710272
0
LINE
8
DEFAULT_255_1_234
10
21.9323538
20
-1.5710272
11
21.7701127
21
-1.5710272
0
LINE
8
DEFAULT_255_1_234
10
21.7701127
20
-1.5710272
11
21.7701127
21
-1.8425
0
LINE
8
DEFAULT_255_1_234
10
21.7701127
20
-1.8425
11
21.6207224
21
-1.8425
0
LINE
8
DEFAULT_255_1_234
10
21.6207224
20
-1.8425
11
21.6207224
21
-1.5710272
0
LINE
8
DEFAULT_255_1_234
10
21.6207224
20
-1.5710272
11
21.0882181
21
-1.5710272
0
LINE
8
DEFAULT_255_1_234
10
21.0882181
20
-1.5710272
11
21.0882181
21
-1.4834813
0
LINE
8
DEFAULT_255_1_234
10
21.0882181
20
-1.4834813
11
21.6118875
21
-0.6730789
0
LINE
8
DEFAULT_255_1_234
10
21.6118875
20
-0.6730789
11
21.7701127
21
-0.6730789
0
LINE
8
DEFAULT_255_1_234
10
21.6030525
20
-0.9084088
11
21.2568846
21
-1.449748
0
LINE
8
DEFAULT_255_1_234
10
21.2568846
20
-1.449748
11
21.6207224
21
-1.449748
0
LINE
8
DEFAULT_255_1_234
10
21.6207224
20
-1.449748
11
21.6207224
21
-0.8762819
0
LINE
8
DEFAULT_255_1_234
10
21.6207224
20
-0.8762819
11
21.6030525
21
-0.9084088
0
ENDSEC
0
EOF