0
SECTION
2
HEADER
9
$MEASUREMENT
70
1
0
ENDSEC
0
SECTION
2
TABLES
0
TABLE
2
LTYPE
0
LTYPE
72
65
70
64
2
CONTINUOUS
3
______
73
0
40
0
0
ENDTAB
0
TABLE
2
LAYER
0
LAYER
2
DEFAULT_255_2_778
70
0
62
255
6
CONTINUOUS
0
LAYER
2
DEFAULT_255_1_234
70
0
62
255
6
CONTINUOUS
0
ENDTAB
0
ENDSEC
0
SECTION
2
ENTITIES
0
LINE
8
DEFAULT_255_2_778
10
8.0698004
20
10.4510499
11
39.8198004
21
10.4510499
0
LINE
8
DEFAULT_255_2_778
10
39.8198004
20
10.4510499
11
39.8198004
21
2.5135499
0
LINE
8
DEFAULT_255_2_778
10
39.8198004
20
2.5135499
11
8.0698004
21
2.5135499
0
LINE
8
DEFAULT_255_2_778
10
8.0698004
20
2.5135499
11
8.0698004
21
10.4510499
0
LINE
8
DEFAULT_255_2_778
10
18.6531
20
10.4510499
11
18.6531
21
2.5135499
0
LINE
8
DEFAULT_255_2_778
10
29.2365
20
10.4510499
11
29.2365
21
2.5135499
0
LINE
8
DEFAULT_255_2_778
10
21.299
20
15.7426499
11
21.299
21
7.8051499
0
LINE
8
DEFAULT_255_2_778
10
26.5906
20
15.7426499
11
26.5906
21
7.8051499
0
LINE
8
DEFAULT_255_2_778
10
23.9448
20
15.7427164
11
23.9448
21
-2.7780836
0
LINE
8
DEFAULT_255_2_778
10
23.9447834
20
6.7467999
11
26.5905834
21
6.7467999
0
LINE
8
DEFAULT_255_2_778
10
26.5905834
20
6.7467999
11
26.5905834
21
-2.7782001
0
LINE
8
DEFAULT_255_2_778
10
23.9448417
20
10.4509875
11
23.2833417
21
8.4665875
0
LINE
8
DEFAULT_255_2_778
10
23.2833417
20
8.4665875
11
24.6062417
21
8.4665875
0
LINE
8
DEFAULT_255_2_778
10
24.6062417
20
8.4665875
11
23.9448417
21
10.4509875
0
LINE
8
DEFAULT_255_2_778
10
16.0073417
20
6.0853375
11
16.0073417
21
2.5134375
0
LINE
8
DEFAULT_255_2_778
10
16.0073417
20
2.5134375
11
15.3458417
21
4.4978375
0
LINE
8
DEFAULT_255_2_778
10
15.3458417
20
4.4978375
11
16.6687417
21
4.4978375
0
LINE
8
DEFAULT_255_2_778
10
16.6687417
20
4.4978375
11
16.0073417
21
2.5134375
0
LINE
8
DEFAULT_255_2_778
10
33.6020625
20
7.8713062
11
37.1739625
21
2.5135062
0
LINE
8
DEFAULT_255_2_778
10
37.1739625
20
2.5135062
11
36.6447625
21
4.5640062
0
LINE
8
DEFAULT_255_2_778
10
36.6447625
20
4.5640062
11
35.5202625
21
3.7703062
0
LINE
8
DEFAULT_255_2_778
10
35.5202625
20
3.7703062
11
37.1739625
21
2.5135062
0
LINE
8
DEFAULT_255_2_778
10
26.5906417
20
2.5134875
11
25.9291417
21
4.4978875
0
LINE
8
DEFAULT_255_2_778
10
25.9291417
20
4.4978875
11
27.2520417
21
4.4978875
0
LINE
8
DEFAULT_255_2_778
10
27.2520417
20
4.4978875
11
26.5906417
21
2.5134875
0
LINE
8
DEFAULT_255_2_778
10
20.6375417
20
7.8052
11
21.9604417
21
7.8052
0
LINE
8
DEFAULT_255_2_778
10
25.9291417
20
7.8052
11
27.2520417
21
7.8052
0
LINE
8
DEFAULT_255_2_778
10
39.8198188
20
8.8635166
11
40.1138188
21
10.4510166
0
LINE
8
DEFAULT_255_2_778
10
40.1138188
20
10.4510166
11
40.5548188
21
7.8052166
0
LINE
8
DEFAULT_255_2_778
10
40.5548188
20
7.8052166
11
40.9959188
21
10.4510166
0
LINE
8
DEFAULT_255_2_778
10
40.9959188
20
10.4510166
11
41.4369188
21
7.8052166
0
LINE
8
DEFAULT_255_2_778
10
41.4369188
20
7.8052166
11
41.8780188
21
10.4510166
0
LINE
8
DEFAULT_255_2_778
10
41.8780188
20
10.4510166
11
42.3191188
21
7.8052166
0
LINE
8
DEFAULT_255_2_778
10
42.3191188
20
7.8052166
11
42.4662188
21
8.8635166
0
LINE
8
DEFAULT_255_2_778
10
8.0697834
20
9.3927166
11
7.7758834
21
7.8052166
0
LINE
8
DEFAULT_255_2_778
10
7.7758834
20
7.8052166
11
7.3347834
21
10.4510166
0
LINE
8
DEFAULT_255_2_778
10
7.3347834
20
10.4510166
11
6.8937834
21
7.8052166
0
LINE
8
DEFAULT_255_2_778
10
6.8937834
20
7.8052166
11
6.4526834
21
10.4510166
0
LINE
8
DEFAULT_255_2_778
10
6.4526834
20
10.4510166
11
6.0115834
21
7.8052166
0
LINE
8
DEFAULT_255_2_778
10
6.0115834
20
7.8052166
11
5.5705834
21
10.4510166
0
LINE
8
DEFAULT_255_2_778
10
5.5705834
20
10.4510166
11
5.4239834
21
9.3927166
0
ARC
8
DEFAULT_255_2_778
10
16.0045392
20
7.0136632
40
0.8790985
50
135.6657692
51
180.1503572
0
ARC
8
DEFAULT_255_2_778
10
16.0049842
20
7.014209
40
0.8790356
50
90.2249452
51
135.7114825
0
ARC
8
DEFAULT_255_2_778
10
16.0073107
20
6.9959386
40
0.8973177
50
89.9978894
51
90.3689202
0
ARC
8
DEFAULT_255_2_778
10
16.0096223
20
7.0143041
40
0.8789551
50
45.6619653
51
90.1485273
0
ARC
8
DEFAULT_255_2_778
10
16.0100557
20
7.0137115
40
0.8790763
50
0.2252168
51
45.709162
0
ARC
8
DEFAULT_255_2_778
10
15.9918262
20
7.0113893
40
0.8973177
50
359.9978894
51
0.3689202
0
ARC
8
DEFAULT_255_2_778
10
16.010149
20
7.0090828
40
0.8789977
50
315.6642148
51
0.1481882
0
ARC
8
DEFAULT_255_2_778
10
16.009668
20
7.0085087
40
0.8789408
50
270.227196
51
315.7128927
0
ARC
8
DEFAULT_255_2_778
10
16.007377
20
7.0264752
40
0.896919
50
269.9978796
51
270.3689996
0
ARC
8
DEFAULT_255_2_778
10
16.0050419
20
7.0086944
40
0.8791411
50
225.6680186
51
270.1500181
0
ARC
8
DEFAULT_255_2_778
10
16.0043554
20
7.0090276
40
0.8789
50
180.2269245
51
225.7152133
0
ARC
8
DEFAULT_255_2_778
10
16.0223627
20
7.011323
40
0.896919
50
179.9978796
51
180.3689996
0
LINE
8
DEFAULT_255_2_778
10
15.1254438
20
7.0113562
11
15.1254438
21
7.0113562
0
LINE
8
DEFAULT_255_2_778
10
14.6843834
20
7.0114583
11
16.0072834
21
8.3343583
0
LINE
8
DEFAULT_255_2_778
10
16.0072834
20
8.3343583
11
17.3301834
21
7.0114583
0
LINE
8
DEFAULT_255_2_778
10
16.0073
20
10.4510333
11
16.0073
21
8.3343333
0
LINE
8
DEFAULT_255_2_778
10
12.0384855
20
6.6476737
11
10.7132855
21
10.3930737
0
LINE
8
DEFAULT_255_2_778
10
10.7132855
20
10.3930737
11
12.0054855
21
8.7973737
0
LINE
8
DEFAULT_255_2_778
10
12.0054855
20
8.7973737
11
10.6976855
21
8.3014737
0
LINE
8
DEFAULT_255_2_778
10
10.6976855
20
8.3014737
11
10.7135855
21
10.3931737
0
ARC
8
DEFAULT_255_2_778
10
12.2875714
20
5.779713
40
0.8969274
50
10.4080275
51
18.0221281
0
ARC
8
DEFAULT_255_2_778
10
12.3045818
20
5.7828635
40
0.8796277
50
0.0086256
51
10.4063602
0
ARC
8
DEFAULT_255_2_778
10
12.3043172
20
5.7835385
40
0.8798925
50
290.8452645
51
359.9646733
0
ARC
8
DEFAULT_255_2_778
10
12.2947359
20
5.8063185
40
0.9045915
50
288.0015245
51
290.8989734
0
ARC
8
DEFAULT_255_2_778
10
12.2967287
20
5.7991479
40
0.8971562
50
280.4098249
51
288.0220104
0
ARC
8
DEFAULT_255_2_778
10
12.2998958
20
5.7820441
40
0.8797617
50
270.0086198
51
280.4082247
0
ARC
8
DEFAULT_255_2_778
10
12.3005344
20
5.7820462
40
0.879764
50
200.83933
51
269.967031
0
ARC
8
DEFAULT_255_2_778
10
12.3235717
20
5.7917568
40
0.9047491
50
197.9977155
51
200.8950519
0
ARC
8
DEFAULT_255_2_778
10
12.3160145
20
5.7897035
40
0.8969274
50
190.4080275
51
198.0221281
0
ARC
8
DEFAULT_255_2_778
10
12.2990041
20
5.786553
40
0.8796277
50
180.0086256
51
190.4063602
0
ARC
8
DEFAULT_255_2_778
10
12.2992687
20
5.7858781
40
0.8798925
50
110.8452645
51
179.9646733
0
ARC
8
DEFAULT_255_2_778
10
12.30885
20
5.7630981
40
0.9045915
50
108.0015245
51
110.8989734
0
ARC
8
DEFAULT_255_2_778
10
12.3067882
20
5.7704867
40
0.8969274
50
100.4080275
51
108.0221281
0
ARC
8
DEFAULT_255_2_778
10
12.3036377
20
5.7874971
40
0.8796277
50
90.0086256
51
100.4063602
0
ARC
8
DEFAULT_255_2_778
10
12.3029628
20
5.7872325
40
0.8798925
50
20.8452645
51
89.9646733
0
ARC
8
DEFAULT_255_2_778
10
12.2801828
20
5.7776513
40
0.9045915
50
18.0015245
51
20.8989734
0
LINE
8
DEFAULT_255_2_778
10
13.1404929
20
6.0572083
11
13.1404929
21
6.0572083
0
LINE
8
DEFAULT_255_2_778
10
13.5598269
20
6.1934904
11
12.7105269
21
4.5264904
0
LINE
8
DEFAULT_255_2_778
10
12.7105269
20
4.5264904
11
11.0435269
21
5.3758904
0
LINE
8
DEFAULT_255_2_778
10
13.3646618
20
2.5134411
11
12.7105618
21
4.5265411
0
LINE
8
DEFAULT_255_2_778
10
36.247822
20
7.8052241
11
37.176122
21
10.3932241
0
LINE
8
DEFAULT_255_2_778
10
37.176122
20
10.3932241
11
35.884222
21
8.7974241
0
LINE
8
DEFAULT_255_2_778
10
35.884222
20
8.7974241
11
37.192022
21
8.3015241
0
LINE
8
DEFAULT_255_2_778
10
37.192022
20
8.3015241
11
37.176122
21
10.3932241
0
ARC
8
DEFAULT_255_2_778
10
35.9532229
20
6.93918
40
0.8794696
50
305.6363357
51
342.1368203
0
ARC
8
DEFAULT_255_2_778
10
35.9527227
20
6.9395606
40
0.8800704
50
270.0380466
51
305.6483631
0
ARC
8
DEFAULT_255_2_778
10
35.9534395
20
6.9391182
40
0.8796278
50
259.5936398
51
269.9913744
0
ARC
8
DEFAULT_255_2_778
10
35.95659
20
6.9561286
40
0.8969274
50
251.9778719
51
259.5919725
0
ARC
8
DEFAULT_255_2_778
10
35.9488677
20
6.9402789
40
0.8794696
50
215.6363357
51
252.1368203
0
ARC
8
DEFAULT_255_2_778
10
35.9492484
20
6.9407791
40
0.8800704
50
180.0380466
51
215.6483631
0
ARC
8
DEFAULT_255_2_778
10
35.9488059
20
6.9400623
40
0.8796278
50
169.5936398
51
179.9913744
0
ARC
8
DEFAULT_255_2_778
10
35.9658163
20
6.9369118
40
0.8969274
50
161.9778719
51
169.5919725
0
ARC
8
DEFAULT_255_2_778
10
35.9499667
20
6.9446341
40
0.8794696
50
125.6363357
51
162.1368203
0
ARC
8
DEFAULT_255_2_778
10
35.9504669
20
6.9442535
40
0.8800704
50
90.0380466
51
125.6483631
0
ARC
8
DEFAULT_255_2_778
10
35.94975
20
6.9446959
40
0.8796278
50
79.5936398
51
89.9913744
0
ARC
8
DEFAULT_255_2_778
10
35.9465996
20
6.9276855
40
0.8969274
50
71.9778719
51
79.5919725
0
ARC
8
DEFAULT_255_2_778
10
35.9543219
20
6.9435352
40
0.8794696
50
35.6363357
51
72.1368203
0
ARC
8
DEFAULT_255_2_778
10
35.9539412
20
6.943035
40
0.8800704
50
0.0380466
51
35.6483631
0
ARC
8
DEFAULT_255_2_778
10
35.9543836
20
6.9437518
40
0.8796278
50
349.5936398
51
359.9913744
0
ARC
8
DEFAULT_255_2_778
10
35.9373732
20
6.9469023
40
0.8969274
50
341.9778719
51
349.5919725
0
LINE
8
DEFAULT_255_2_778
10
36.7902948
20
6.6694071
11
36.7902948
21
6.6694071
0
LINE
8
DEFAULT_255_2_778
10
34.6934269
20
7.3507904
11
35.5428269
21
5.6837904
0
LINE
8
DEFAULT_255_2_778
10
35.5428269
20
5.6837904
11
37.2097269
21
6.5331904
0
LINE
8
DEFAULT_255_2_778
10
34.5250162
20
2.5135
11
35.5536162
21
5.6885
0
ARC
8
DEFAULT_255_2_778
10
33.1132328
20
8.6238181
40
0.8850951
50
194.5281096
51
214.0806438
0
ARC
8
DEFAULT_255_2_778
10
33.1051027
20
8.6209881
40
0.8765154
50
183.0341332
51
194.4823451
0
ARC
8
DEFAULT_255_2_778
10
33.1078304
20
8.6211865
40
0.8792498
50
179.9994076
51
183.0376413
0
ARC
8
DEFAULT_255_2_778
10
33.1078256
20
8.6216902
40
0.8792454
50
132.1089703
51
180.0322305
0
ARC
8
DEFAULT_255_2_778
10
33.1191743
20
8.6086289
40
0.8965451
50
123.9830147
51
132.0873076
0
ARC
8
DEFAULT_255_2_778
10
33.1140243
20
8.6189672
40
0.8850951
50
104.5281096
51
124.0806438
0
ARC
8
DEFAULT_255_2_778
10
33.1111942
20
8.6270973
40
0.8765154
50
93.0341332
51
104.4823451
0
ARC
8
DEFAULT_255_2_778
10
33.1113927
20
8.6243696
40
0.8792498
50
89.9994076
51
93.0376413
0
ARC
8
DEFAULT_255_2_778
10
33.1118964
20
8.6243744
40
0.8792454
50
42.1089703
51
90.0322305
0
ARC
8
DEFAULT_255_2_778
10
33.098835
20
8.6130257
40
0.8965451
50
33.9830147
51
42.0873076
0
ARC
8
DEFAULT_255_2_778
10
33.1091733
20
8.6181757
40
0.8850951
50
14.5281096
51
34.0806438
0
ARC
8
DEFAULT_255_2_778
10
33.1173035
20
8.6210058
40
0.8765154
50
3.0341332
51
14.4823451
0
ARC
8
DEFAULT_255_2_778
10
33.1145757
20
8.6208073
40
0.8792498
50
359.9994076
51
3.0376413
0
ARC
8
DEFAULT_255_2_778
10
33.1145805
20
8.6203036
40
0.8792454
50
312.1089703
51
0.0322305
0
ARC
8
DEFAULT_255_2_778
10
33.1032318
20
8.633365
40
0.8965451
50
303.9830147
51
312.0873076
0
ARC
8
DEFAULT_255_2_778
10
33.1083949
20
8.6230159
40
0.8850789
50
284.5270954
51
304.0803378
0
ARC
8
DEFAULT_255_2_778
10
33.1111891
20
8.6150015
40
0.8766201
50
273.0342355
51
284.4816989
0
ARC
8
DEFAULT_255_2_778
10
33.1109833
20
8.6177442
40
0.87937
50
269.9996544
51
273.0381653
0
ARC
8
DEFAULT_255_2_778
10
33.1104456
20
8.6175242
40
0.8791501
50
222.1062097
51
270.034695
0
ARC
8
DEFAULT_255_2_778
10
33.1232076
20
8.6285371
40
0.8960026
50
213.9731521
51
222.0814931
0
LINE
8
DEFAULT_255_2_778
10
32.3801531
20
8.1278469
11
32.3801531
21
8.1278469
0
LINE
8
DEFAULT_255_2_778
10
32.0145624
20
7.8811629
11
32.3715624
21
9.7176629
0
LINE
8
DEFAULT_255_2_778
10
32.3715624
20
9.7176629
11
34.2080624
21
9.3606629
0
LINE
8
DEFAULT_255_2_778
10
34.5281
20
10.4510166
11
34.5281
21
7.8052166
0
LINE
8
DEFAULT_255_2_778
10
33.8666417
20
7.8052
11
35.1895417
21
7.8052
0
LINE
8
DEFAULT_255_2_778
10
31.8822531
20
10.4510021
11
32.3783531
21
9.7234021
0
LINE
8
DEFAULT_255_2_778
10
13.3615
20
10.4510166
11
13.3615
21
7.8052166
0
LINE
8
DEFAULT_255_2_778
10
12.7000417
20
7.8052
11
14.0229417
21
7.8052
0
LINE
8
DEFAULT_255_2_778
10
8.0697417
20
5.1593
11
6.7468417
21
5.1593
0
LINE
8
DEFAULT_255_2_778
10
5.4239417
20
3.8364166
11
6.7468417
21
5.1593166
0
LINE
8
DEFAULT_255_2_778
10
6.7468417
20
5.1593166
11
5.4239417
21
6.4822166
0
LINE
8
DEFAULT_255_2_778
10
5.4239417
20
6.4822166
11
5.4239417
21
3.8364166
0
LINE
8
DEFAULT_255_2_778
10
5.4238834
20
5.1593
11
2.7780834
21
5.1593
0
LINE
8
DEFAULT_255_2_778
10
41.1427417
20
5.1593166
11
42.4656417
21
6.4822166
0
LINE
8
DEFAULT_255_2_778
10
42.4656417
20
6.4822166
11
42.4656417
21
3.8364166
0
LINE
8
DEFAULT_255_2_778
10
42.4656417
20
3.8364166
11
41.1427417
21
5.1593166
0
LINE
8
DEFAULT_255_2_778
10
42.4655834
20
5.1593
11
45.1113834
21
5.1593
0
LINE
8
DEFAULT_255_2_778
10
41.1426417
20
5.1593
11
39.8197417
21
5.1593
0
LINE
8
DEFAULT_255_1_234
10
18.9186137
20
14.6291433
11
18.9186137
21
13.4541
0
LINE
8
DEFAULT_255_1_234
10
18.9186137
20
13.4541
11
18.7692234
21
13.4541
0
LINE
8
DEFAULT_255_1_234
10
18.7692234
20
13.4541
11
18.7692234
21
14.4444133
0
LINE
8
DEFAULT_255_1_234
10
18.7692234
20
14.4444133
11
18.4696396
21
14.3343785
0
LINE
8
DEFAULT_255_1_234
10
18.4696396
20
14.3343785
11
18.4696396
21
14.4693117
0
LINE
8
DEFAULT_255_1_234
10
18.4696396
20
14.4693117
11
18.8953217
21
14.6291433
0
LINE
8
DEFAULT_255_1_234
10
18.8953217
20
14.6291433
11
18.9186137
21
14.6291433
0
LINE
8
DEFAULT_255_1_234
10
19.5699877
20
13.9898169
11
19.5699877
21
14.1110962
0
LINE
8
DEFAULT_255_1_234
10
19.5699877
20
14.1110962
11
19.6816289
21
14.1110962
0
LINE
8
DEFAULT_255_1_234
10
19.4912767
20
14.3167087
11
19.3426895
21
14.3167087
0
LINE
8
DEFAULT_255_1_234
10
19.3322482
20
13.7625188
11
19.4816386
21
13.7625188
0
LINE
8
DEFAULT_255_1_234
10
19.6816289
20
13.9898169
11
19.5699877
21
13.9898169
0
ARC
8
DEFAULT_255_1_234
10
19.6787155
20
14.4503713
40
0.3392876
50
270.4919872
51
281.8951556
0
ARC
8
DEFAULT_255_1_234
10
19.7028417
20
14.3401702
40
0.2264817
50
281.6691735
51
301.2943132
0
ARC
8
DEFAULT_255_1_234
10
19.7198627
20
14.3090304
40
0.1910381
50
301.7833094
51
311.7545298
0
ARC
8
DEFAULT_255_1_234
10
19.7290203
20
14.2988748
40
0.1773635
50
311.7323931
51
354.2802411
0
ARC
8
DEFAULT_255_1_234
10
19.6563828
20
14.3113722
40
0.2509385
50
353.0937916
51
0.1181479
0
ARC
8
DEFAULT_255_1_234
10
19.6102613
20
14.3161386
40
0.2970898
50
359.1805295
51
15.0453146
0
ARC
8
DEFAULT_255_1_234
10
19.744845
20
14.3553992
40
0.1569564
50
13.9577229
51
77.6713066
0
ARC
8
DEFAULT_255_1_234
10
19.7061979
20
14.2168949
40
0.3006298
50
76.1116566
51
90.7026153
0
ARC
8
DEFAULT_255_1_234
10
19.7002817
20
14.2442545
40
0.2732568
50
89.5324876
51
103.531937
0
ARC
8
DEFAULT_255_1_234
10
19.6802261
20
14.3241884
40
0.1908508
50
103.2931773
51
133.5619022
0
ARC
8
DEFAULT_255_1_234
10
19.675775
20
14.3301375
40
0.1834746
50
133.8349307
51
173.5344437
0
ARC
8
DEFAULT_255_1_234
10
19.7480793
20
14.3173213
40
0.2568033
50
172.5096846
51
180.1366907
0
ARC
8
DEFAULT_255_1_234
10
19.6529687
20
14.3207622
40
0.3103056
50
155.3484492
51
180.7484736
0
ARC
8
DEFAULT_255_1_234
10
19.6480776
20
14.3178846
40
0.3070957
50
131.5744599
51
154.4798489
0
ARC
8
DEFAULT_255_1_234
10
19.6793923
20
14.286231
40
0.3515643
50
96.9875458
51
131.9690667
0
ARC
8
DEFAULT_255_1_234
10
19.7013403
20
14.1616636
40
0.4779224
50
89.8596053
51
97.7825159
0
ARC
8
DEFAULT_255_1_234
10
19.7061466
20
14.1354616
40
0.5041361
50
78.3655447
51
90.4131539
0
ARC
8
DEFAULT_255_1_234
10
19.7419384
20
14.3013887
40
0.3344039
50
56.6229102
51
78.638727
0
ARC
8
DEFAULT_255_1_234
10
19.7634328
20
14.3389805
40
0.2912001
50
47.0253525
51
56.0854072
0
ARC
8
DEFAULT_255_1_234
10
19.7654108
20
14.3429223
40
0.2869704
50
10.9208013
51
46.7778124
0
ARC
8
DEFAULT_255_1_234
10
19.6290174
20
14.3113857
40
0.426899
50
359.6364486
51
11.6087304
0
ARC
8
DEFAULT_255_1_234
10
19.8125018
20
14.3098752
40
0.243409
50
332.3549906
51
359.7179418
0
ARC
8
DEFAULT_255_1_234
10
19.747462
20
14.3407142
40
0.3153459
50
325.2333722
51
332.8745602
0
ARC
8
DEFAULT_255_1_234
10
19.7627244
20
14.3300828
40
0.2967456
50
292.9802137
51
325.2392345
0
ARC
8
DEFAULT_255_1_234
10
19.7352617
20
14.3834863
40
0.3566604
50
292.5402179
51
293.6924929
0
ARC
8
DEFAULT_255_1_234
10
19.7745213
20
13.7380091
40
0.3307468
50
57.6435486
51
72.8625112
0
ARC
8
DEFAULT_255_1_234
10
19.8099713
20
13.7954549
40
0.2632492
50
36.7248896
51
57.4697979
0
ARC
8
DEFAULT_255_1_234
10
19.8088346
20
13.796722
40
0.2634081
50
8.0545065
51
36.356114
0
ARC
8
DEFAULT_255_1_234
10
19.7225531
20
13.7812174
40
0.3510261
50
359.8320645
51
8.5869982
0
ARC
8
DEFAULT_255_1_234
10
19.6850307
20
13.7764101
40
0.3885653
50
343.9829931
51
0.5571613
0
ARC
8
DEFAULT_255_1_234
10
19.7736504
20
13.7521438
40
0.2966924
50
311.6359546
51
343.7651759
0
ARC
8
DEFAULT_255_1_234
10
19.7358074
20
13.7948102
40
0.3537231
50
279.7829875
51
311.6255694
0
ARC
8
DEFAULT_255_1_234
10
19.705685
20
13.938528
40
0.5004971
50
269.7286406
51
280.3856417
0
ARC
8
DEFAULT_255_1_234
10
19.6994922
20
13.9343996
40
0.4963778
50
256.6828919
51
270.4412052
0
ARC
8
DEFAULT_255_1_234
10
19.6656218
20
13.7959394
40
0.3538406
50
229.4223008
51
256.8556159
0
ARC
8
DEFAULT_255_1_234
10
19.6241611
20
13.7492736
40
0.2914296
50
181.818294
51
229.6455059
0
ARC
8
DEFAULT_255_1_234
10
19.7281567
20
13.7623496
40
0.3959084
50
179.9755256
51
183.2323064
0
ARC
8
DEFAULT_255_1_234
10
19.7109313
20
13.7603037
40
0.2293034
50
179.4465117
51
196.2869258
0
ARC
8
DEFAULT_255_1_234
10
19.6621721
20
13.7469651
40
0.1787621
50
196.5661473
51
227.705904
0
ARC
8
DEFAULT_255_1_234
10
19.6785816
20
13.7653155
40
0.2033784
50
227.7652068
51
257.8762805
0
ARC
8
DEFAULT_255_1_234
10
19.7010786
20
13.8596156
40
0.3003081
50
257.4584385
51
270.426602
0
ARC
8
DEFAULT_255_1_234
10
19.7056352
20
13.8885996
40
0.329292
50
269.5962073
51
280.8789248
0
ARC
8
DEFAULT_255_1_234
10
19.7285881
20
13.7739685
40
0.2123908
50
280.6346389
51
299.8595945
0
ARC
8
DEFAULT_255_1_234
10
19.7476788
20
13.7377212
40
0.171457
50
300.3576302
51
314.5517981
0
ARC
8
DEFAULT_255_1_234
10
19.7393848
20
13.7437919
40
0.1816095
50
315.0728369
51
345.0431014
0
ARC
8
DEFAULT_255_1_234
10
19.6470662
20
13.7706841
40
0.2777492
50
344.5986631
51
357.9269593
0
ARC
8
DEFAULT_255_1_234
10
19.5574989
20
13.7768276
40
0.3674917
50
357.4748886
51
0.0231117
0
ARC
8
DEFAULT_255_1_234
10
19.6598098
20
13.7792679
40
0.2651907
50
359.5047933
51
13.4239635
0
ARC
8
DEFAULT_255_1_234
10
19.7464741
20
13.8014478
40
0.1757509
50
12.9498199
51
48.7551375
0
ARC
8
DEFAULT_255_1_234
10
19.7282475
20
13.77654
40
0.2065134
50
49.5088623
51
72.1836453
0
ARC
8
DEFAULT_255_1_234
10
19.6924628
20
13.6703291
40
0.3185836
50
71.9010081
51
84.3554254
0
ARC
8
DEFAULT_255_1_234
10
19.676326
20
13.5342326
40
0.4556151
50
84.0193428
51
89.333121
0
LINE
8
DEFAULT_255_1_234
10
20.4647233
20
14.0098963
11
20.3458536
21
14.0404169
0
LINE
8
DEFAULT_255_1_234
10
20.3458536
20
14.0404169
11
20.4052885
21
14.6235211
0
LINE
8
DEFAULT_255_1_234
10
20.4052885
20
14.6235211
11
21.0044562
21
14.6235211
0
LINE
8
DEFAULT_255_1_234
10
21.0044562
20
14.6235211
11
21.0044562
21
14.4861784
0
LINE
8
DEFAULT_255_1_234
10
21.0044562
20
14.4861784
11
20.5313868
21
14.4861784
0
LINE
8
DEFAULT_255_1_234
10
20.5313868
20
14.4861784
11
20.4960471
21
14.1673184
0
LINE
8
DEFAULT_255_1_234
10
20.3040886
20
13.7617156
11
20.444644
21
13.7617156
0
LINE
8
DEFAULT_255_1_234
10
20.5040789
20
14.0420232
11
20.4647233
21
14.0098963
0
ARC
8
DEFAULT_255_1_234
10
20.6815255
20
13.849323
40
0.3681349
50
93.7182161
51
120.2538958
0
ARC
8
DEFAULT_255_1_234
10
20.6909518
20
13.7685394
40
0.449379
50
89.9660152
51
94.2496022
0
ARC
8
DEFAULT_255_1_234
10
20.6950252
20
13.8274549
40
0.390482
50
73.8043271
51
90.5585896
0
ARC
8
DEFAULT_255_1_234
10
20.7185149
20
13.9132602
40
0.3015334
50
41.3071453
51
73.5430202
0
ARC
8
DEFAULT_255_1_234
10
20.6768976
20
13.8774324
40
0.3564457
50
13.5075983
51
41.2174222
0
ARC
8
DEFAULT_255_1_234
10
20.512718
20
13.8344486
40
0.5261351
50
1.1331335
51
13.8829381
0
ARC
8
DEFAULT_255_1_234
10
20.3715549
20
13.8268665
40
0.6674378
50
359.9919444
51
1.544251
0
ARC
8
DEFAULT_255_1_234
10
20.4992375
20
13.822728
40
0.5397702
50
347.8572367
51
0.4293338
0
ARC
8
DEFAULT_255_1_234
10
20.6742693
20
13.7830736
40
0.3603188
50
323.673004
51
348.1672506
0
ARC
8
DEFAULT_255_1_234
10
20.7037201
20
13.7651168
40
0.3259678
50
316.8171152
51
323.1492751
0
ARC
8
DEFAULT_255_1_234
10
20.709839
20
13.761446
40
0.3189975
50
281.8396411
51
316.5457803
0
ARC
8
DEFAULT_255_1_234
10
20.6722654
20
13.9169762
40
0.4789527
50
269.5770101
51
282.4214771
0
ARC
8
DEFAULT_255_1_234
10
20.6651465
20
13.8956125
40
0.45759
50
256.2427136
51
270.4486331
0
ARC
8
DEFAULT_255_1_234
10
20.6352368
20
13.7756229
40
0.3339303
50
228.9023911
51
256.3314342
0
ARC
8
DEFAULT_255_1_234
10
20.62786
20
13.7639746
40
0.32031
50
193.753695
51
228.5271154
0
ARC
8
DEFAULT_255_1_234
10
20.7516554
20
13.80028
40
0.4492253
50
184.924711
51
194.497588
0
ARC
8
DEFAULT_255_1_234
10
20.7709121
20
13.8038591
40
0.3289787
50
187.3600538
51
198.6732863
0
ARC
8
DEFAULT_255_1_234
10
20.6659415
20
13.7674674
40
0.217884
50
198.4451669
51
217.794479
0
ARC
8
DEFAULT_255_1_234
10
20.636359
20
13.7465085
40
0.1816698
50
218.2887171
51
228.5612368
0
ARC
8
DEFAULT_255_1_234
10
20.6461377
20
13.7596963
40
0.1980329
50
228.9654866
51
258.1234728
0
ARC
8
DEFAULT_255_1_234
10
20.6667087
20
13.8477833
40
0.2884748
50
257.7258293
51
270.401361
0
ARC
8
DEFAULT_255_1_234
10
20.6711974
20
13.8032821
40
0.2439788
50
269.4204404
51
286.4209037
0
ARC
8
DEFAULT_255_1_234
10
20.6860461
20
13.7493657
40
0.1880666
50
286.7251356
51
320.600362
0
ARC
8
DEFAULT_255_1_234
10
20.6477286
20
13.7804595
40
0.2374121
50
320.6712579
51
344.5441685
0
ARC
8
DEFAULT_255_1_234
10
20.5320612
20
13.8144045
40
0.3579479
50
344.2412205
51
356.7357071
0
ARC
8
DEFAULT_255_1_234
10
20.4071761
20
13.8247444
40
0.4832297
50
356.3548756
51
0.0500261
0
ARC
8
DEFAULT_255_1_234
10
20.540827
20
13.827865
40
0.3495889
50
359.5576869
51
12.953486
0
ARC
8
DEFAULT_255_1_234
10
20.6463167
20
13.8534434
40
0.2410532
50
12.6490276
51
41.6081334
0
ARC
8
DEFAULT_255_1_234
10
20.6693538
20
13.8730321
40
0.2108218
50
41.7850273
51
85.9892764
0
ARC
8
DEFAULT_255_1_234
10
20.6570275
20
13.7917462
40
0.2928454
50
84.6957577
51
90.0676183
0
ARC
8
DEFAULT_255_1_234
10
20.6546759
20
13.7248716
40
0.3597255
50
89.6804936
51
99.1614436
0
ARC
8
DEFAULT_255_1_234
10
20.634139
20
13.8476131
40
0.235281
50
98.9830931
51
113.8908934
0
ARC
8
DEFAULT_255_1_234
10
20.61118
20
13.9017587
40
0.176479
50
114.1950727
51
127.3641004
0
LINE
8
DEFAULT_255_1_234
10
21.9782119
20
-1.7212208
11
21.9782119
21
-1.8425
0
LINE
8
DEFAULT_255_1_234
10
21.9782119
20
-1.8425
11
21.211984
21
-1.8425
0
LINE
8
DEFAULT_255_1_234
10
21.211984
20
-1.8425
11
21.211984
21
-1.7356779
0
LINE
8
DEFAULT_255_1_234
10
21.211984
20
-1.7356779
11
21.6167836
21
-1.2859005
0
LINE
8
DEFAULT_255_1_234
10
21.3380823
20
-1.0176405
11
21.1894952
21
-1.0176405
0
LINE
8
DEFAULT_255_1_234
10
21.7043296
20
-1.3814782
11
21.3910918
21
-1.7212208
0
LINE
8
DEFAULT_255_1_234
10
21.3910918
20
-1.7212208
11
21.9782119
21
-1.7212208
0
ARC
8
DEFAULT_255_1_234
10
20.267767
20
-0.0929473
40
1.8008286
50
318.5132453
51
320.7828378
0
ARC
8
DEFAULT_255_1_234
10
20.7964644
20
-0.5232574
40
1.1191493
50
320.7372736
51
323.9737074
0
ARC
8
DEFAULT_255_1_234
10
21.1884501
20
-0.8072639
40
0.6350923
50
323.8961724
51
328.6421089
0
ARC
8
DEFAULT_255_1_234
10
21.3931096
20
-0.9334969
40
0.3946393
50
328.8299013
51
331.789948
0
ARC
8
DEFAULT_255_1_234
10
21.4928274
20
-0.9849491
40
0.2824501
50
331.4255242
51
352.9364833
0
ARC
8
DEFAULT_255_1_234
10
21.5064775
20
-0.9880024
40
0.2685315
50
353.2248685
51
0.0169286
0
ARC
8
DEFAULT_255_1_234
10
21.5274652
20
-0.985705
40
0.2475536
50
359.4866256
51
15.9339782
0
ARC
8
DEFAULT_255_1_234
10
21.5781637
20
-0.9720714
40
0.1950618
50
16.1714718
51
43.5284424
0
ARC
8
DEFAULT_255_1_234
10
21.5858946
20
-0.9643427
40
0.184134
50
43.4415429
51
83.1661404
0
ARC
8
DEFAULT_255_1_234
10
21.5724864
20
-1.0380229
40
0.258926
50
82.160215
51
90.1505798
0
ARC
8
DEFAULT_255_1_234
10
21.5693291
20
-1.0917135
40
0.3126255
50
89.5460705
51
102.5418777
0
ARC
8
DEFAULT_255_1_234
10
21.5450377
20
-0.9886335
40
0.2067346
50
102.1739365
51
129.2061916
0
ARC
8
DEFAULT_255_1_234
10
21.5371449
20
-0.9761906
40
0.1921118
50
129.7279328
51
135.7542026
0
ARC
8
DEFAULT_255_1_234
10
21.5492977
20
-0.9858955
40
0.2075944
50
136.175737
51
166.3674722
0
ARC
8
DEFAULT_255_1_234
10
21.6499896
20
-1.0128818
40
0.3118201
50
165.9092917
51
178.8683903
0
ARC
8
DEFAULT_255_1_234
10
21.7364757
20
-1.0175821
40
0.3983935
50
178.438168
51
180.0083905
0
ARC
8
DEFAULT_255_1_234
10
21.5963359
20
-1.0136769
40
0.4068601
50
163.2878735
51
180.5581814
0
ARC
8
DEFAULT_255_1_234
10
21.5161621
20
-0.991616
40
0.3237344
50
133.454115
51
162.9470031
0
ARC
8
DEFAULT_255_1_234
10
21.5340162
20
-1.0106
40
0.349795
50
100.7869394
51
133.4384016
0
ARC
8
DEFAULT_255_1_234
10
21.5687934
20
-1.1654681
40
0.5084616
50
89.6605301
51
101.3704185
0
ARC
8
DEFAULT_255_1_234
10
21.5754273
20
-1.1593504
40
0.502348
50
78.2171172
51
90.4130393
0
ARC
8
DEFAULT_255_1_234
10
21.6109351
20
-0.9969363
40
0.3361092
50
55.9268222
51
78.4888551
0
ARC
8
DEFAULT_255_1_234
10
21.6305791
20
-0.9630676
40
0.2970617
50
47.9292255
51
55.4054003
0
ARC
8
DEFAULT_255_1_234
10
21.6407352
20
-0.9527498
40
0.2825983
50
4.3347696
51
48.0560701
0
ARC
8
DEFAULT_255_1_234
10
21.5311745
20
-0.9697399
40
0.393225
50
359.925209
51
5.5967654
0
ARC
8
DEFAULT_255_1_234
10
21.5740637
20
-0.9641184
40
0.3503892
50
337.8914096
51
358.9967724
0
ARC
8
DEFAULT_255_1_234
10
21.3027049
20
-0.8594294
40
0.6412172
50
326.9135351
51
338.3505194
0
ARC
8
DEFAULT_255_1_234
10
20.9041353
20
-0.6039716
40
1.1146189
50
319.6472867
51
327.095818
0
ARC
8
DEFAULT_255_1_234
10
20.5208356
20
-0.2878
40
1.6114559
50
317.2586784
51
319.9046139
0
LINE
8
DEFAULT_255_1_234
10
22.7629127
20
-0.6730789
11
22.7629127
21
-1.449748
0
LINE
8
DEFAULT_255_1_234
10
22.7629127
20
-1.449748
11
22.9251538
21
-1.449748
0
LINE
8
DEFAULT_255_1_234
10
22.9251538
20
-1.449748
11
22.9251538
21
-1.5710272
0
LINE
8
DEFAULT_255_1_234
10
22.9251538
20
-1.5710272
11
22.7629127
21
-1.5710272
0
LINE
8
DEFAULT_255_1_234
10
22.7629127
20
-1.5710272
11
22.7629127
21
-1.8425
0
LINE
8
DEFAULT_255_1_234
10
22.7629127
20
-1.8425
11
22.6135224
21
-1.8425
0
LINE
8
DEFAULT_255_1_234
10
22.6135224
20
-1.8425
11
22.6135224
21
-1.5710272
0
LINE
8
DEFAULT_255_1_234
10
22.6135224
20
-1.5710272
11
22.0810181
21
-1.5710272
0
LINE
8
DEFAULT_255_1_234
10
22.0810181
20
-1.5710272
11
22.0810181
21
-1.4834813
0
LINE
8
DEFAULT_255_1_234
10
22.0810181
20
-1.4834813
11
22.6046875
21
-0.6730789
0
LINE
8
DEFAULT_255_1_234
10
22.6046875
20
-0.6730789
11
22.7629127
21
-0.6730789
0
LINE
8
DEFAULT_255_1_234
10
22.5958525
20
-0.9084088
11
22.2496846
21
-1.449748
0
LINE
8
DEFAULT_255_1_234
10
22.2496846
20
-1.449748
11
22.6135224
21
-1.449748
0
LINE
8
DEFAULT_255_1_234
10
22.6135224
20
-1.449748
11
22.6135224
21
-0.8762819
0
LINE
8
DEFAULT_255_1_234
10
22.6135224
20
-0.8762819
11
22.5958525
21
-0.9084088
0
LINE
8
DEFAULT_255_1_234
10
4.6540137
20
7.2705433
11
4.6540137
21
6.0955
0
LINE
8
DEFAULT_255_1_234
10
4.6540137
20
6.0955
11
4.5046234
21
6.0955
0
LINE
8
DEFAULT_255_1_234
10
4.5046234
20
6.0955
11
4.5046234
21
7.0858133
0
LINE
8
DEFAULT_255_1_234
10
4.5046234
20
7.0858133
11
4.2050396
21
6.9757785
0
LINE
8
DEFAULT_255_1_234
10
4.2050396
20
6.9757785
11
4.2050396
21
7.1107117
0
LINE
8
DEFAULT_255_1_234
10
4.2050396
20
7.1107117
11
4.6307217
21
7.2705433
0
LINE
8
DEFAULT_255_1_234
10
4.6307217
20
7.2705433
11
4.6540137
21
7.2705433
0
LINE
8
DEFAULT_255_1_234
10
5.7166127
20
7.2649211
11
5.7166127
21
6.488252
0
LINE
8
DEFAULT_255_1_234
10
5.7166127
20
6.488252
11
5.8788538
21
6.488252
0
LINE
8
DEFAULT_255_1_234
10
5.8788538
20
6.488252
11
5.8788538
21
6.3669728
0
LINE
8
DEFAULT_255_1_234
10
5.8788538
20
6.3669728
11
5.7166127
21
6.3669728
0
LINE
8
DEFAULT_255_1_234
10
5.7166127
20
6.3669728
11
5.7166127
21
6.0955
0
LINE
8
DEFAULT_255_1_234
10
5.7166127
20
6.0955
11
5.5672224
21
6.0955
0
LINE
8
DEFAULT_255_1_234
10
5.5672224
20
6.0955
11
5.5672224
21
6.3669728
0
LINE
8
DEFAULT_255_1_234
10
5.5672224
20
6.3669728
11
5.0347181
21
6.3669728
0
LINE
8
DEFAULT_255_1_234
10
5.0347181
20
6.3669728
11
5.0347181
21
6.4545187
0
LINE
8
DEFAULT_255_1_234
10
5.0347181
20
6.4545187
11
5.5583875
21
7.2649211
0
LINE
8
DEFAULT_255_1_234
10
5.5583875
20
7.2649211
11
5.7166127
21
7.2649211
0
LINE
8
DEFAULT_255_1_234
10
5.5495525
20
7.0295912
11
5.2033846
21
6.488252
0
LINE
8
DEFAULT_255_1_234
10
5.2033846
20
6.488252
11
5.5672224
21
6.488252
0
LINE
8
DEFAULT_255_1_234
10
5.5672224
20
6.488252
11
5.5672224
21
7.0617181
0
LINE
8
DEFAULT_255_1_234
10
5.5672224
20
7.0617181
11
5.5495525
21
7.0295912
0
LINE
8
DEFAULT_255_1_234
10
41.6061137
20
7.2705433
11
41.6061137
21
6.0955
0
LINE
8
DEFAULT_255_1_234
10
41.6061137
20
6.0955
11
41.4567234
21
6.0955
0
LINE
8
DEFAULT_255_1_234
10
41.4567234
20
6.0955
11
41.4567234
21
7.0858133
0
LINE
8
DEFAULT_255_1_234
10
41.4567234
20
7.0858133
11
41.1571396
21
6.9757785
0
LINE
8
DEFAULT_255_1_234
10
41.1571396
20
6.9757785
11
41.1571396
21
7.1107117
0
LINE
8
DEFAULT_255_1_234
10
41.1571396
20
7.1107117
11
41.5828217
21
7.2705433
0
LINE
8
DEFAULT_255_1_234
10
41.5828217
20
7.2705433
11
41.6061137
21
7.2705433
0
LINE
8
DEFAULT_255_1_234
10
42.8076618
20
6.2167792
11
42.8076618
21
6.0955
0
LINE
8
DEFAULT_255_1_234
10
42.8076618
20
6.0955
11
42.0414339
21
6.0955
0
LINE
8
DEFAULT_255_1_234
10
42.0414339
20
6.0955
11
42.0414339
21
6.2023221
0
LINE
8
DEFAULT_255_1_234
10
42.0414339
20
6.2023221
11
42.4462335
21
6.6520995
0
LINE
8
DEFAULT_255_1_234
10
42.1675322
20
6.9203595
11
42.0189451
21
6.9203595
0
LINE
8
DEFAULT_255_1_234
10
42.5337795
20
6.5565218
11
42.2205417
21
6.2167792
0
LINE
8
DEFAULT_255_1_234
10
42.2205417
20
6.2167792
11
42.8076618
21
6.2167792
0
ARC
8
DEFAULT_255_1_234
10
41.0972169
20
7.8450527
40
1.8008286
50
318.5132453
51
320.7828378
0
ARC
8
DEFAULT_255_1_234
10
41.6259143
20
7.4147426
40
1.1191493
50
320.7372736
51
323.9737074
0
ARC
8
DEFAULT_255_1_234
10
42.0179
20
7.1307361
40
0.6350923
50
323.8961724
51
328.6421089
0
ARC
8
DEFAULT_255_1_234
10
42.2225595
20
7.0045031
40
0.3946393
50
328.8299013
51
331.789948
0
ARC
8
DEFAULT_255_1_234
10
42.3222774
20
6.9530509
40
0.2824501
50
331.4255242
51
352.9364833
0
ARC
8
DEFAULT_255_1_234
10
42.3359274
20
6.9499976
40
0.2685315
50
353.2248685
51
0.0169286
0
ARC
8
DEFAULT_255_1_234
10
42.3569151
20
6.952295
40
0.2475536
50
359.4866256
51
15.9339782
0
ARC
8
DEFAULT_255_1_234
10
42.4076136
20
6.9659286
40
0.1950618
50
16.1714718
51
43.5284424
0
ARC
8
DEFAULT_255_1_234
10
42.4153445
20
6.9736573
40
0.184134
50
43.4415429
51
83.1661404
0
ARC
8
DEFAULT_255_1_234
10
42.4019363
20
6.8999771
40
0.258926
50
82.160215
51
90.1505798
0
ARC
8
DEFAULT_255_1_234
10
42.398779
20
6.8462865
40
0.3126255
50
89.5460705
51
102.5418777
0
ARC
8
DEFAULT_255_1_234
10
42.3744876
20
6.9493665
40
0.2067346
50
102.1739365
51
129.2061916
0
ARC
8
DEFAULT_255_1_234
10
42.3665948
20
6.9618094
40
0.1921118
50
129.7279328
51
135.7542026
0
ARC
8
DEFAULT_255_1_234
10
42.3787476
20
6.9521045
40
0.2075944
50
136.175737
51
166.3674722
0
ARC
8
DEFAULT_255_1_234
10
42.4794395
20
6.9251182
40
0.3118201
50
165.9092917
51
178.8683903
0
ARC
8
DEFAULT_255_1_234
10
42.5659256
20
6.9204179
40
0.3983935
50
178.438168
51
180.0083905
0
ARC
8
DEFAULT_255_1_234
10
42.4257859
20
6.9243231
40
0.4068601
50
163.2878735
51
180.5581814
0
ARC
8
DEFAULT_255_1_234
10
42.345612
20
6.946384
40
0.3237344
50
133.454115
51
162.9470031
0
ARC
8
DEFAULT_255_1_234
10
42.3634661
20
6.9274
40
0.349795
50
100.7869394
51
133.4384016
0
ARC
8
DEFAULT_255_1_234
10
42.3982433
20
6.7725319
40
0.5084616
50
89.6605301
51
101.3704185
0
ARC
8
DEFAULT_255_1_234
10
42.4048772
20
6.7786496
40
0.502348
50
78.2171172
51
90.4130393
0
ARC
8
DEFAULT_255_1_234
10
42.440385
20
6.9410637
40
0.3361092
50
55.9268222
51
78.4888551
0
ARC
8
DEFAULT_255_1_234
10
42.460029
20
6.9749324
40
0.2970617
50
47.9292255
51
55.4054003
0
ARC
8
DEFAULT_255_1_234
10
42.4701851
20
6.9852502
40
0.2825983
50
4.3347696
51
48.0560701
0
ARC
8
DEFAULT_255_1_234
10
42.3606244
20
6.9682601
40
0.393225
50
359.925209
51
5.5967654
0
ARC
8
DEFAULT_255_1_234
10
42.4035136
20
6.9738816
40
0.3503892
50
337.8914096
51
358.9967724
0
ARC
8
DEFAULT_255_1_234
10
42.1321548
20
7.0785706
40
0.6412172
50
326.9135351
51
338.3505194
0
ARC
8
DEFAULT_255_1_234
10
41.7335852
20
7.3340284
40
1.1146189
50
319.6472867
51
327.095818
0
ARC
8
DEFAULT_255_1_234
10
41.3502855
20
7.6502
40
1.6114559
50
317.2586784
51
319.9046139
0
ENDSEC
0
EOF