0
SECTION
2
HEADER
9
$MEASUREMENT
70
1
0
ENDSEC
0
SECTION
2
TABLES
0
TABLE
2
LTYPE
0
LTYPE
72
65
70
64
2
CONTINUOUS
3
______
73
0
40
0
0
ENDTAB
0
TABLE
2
LAYER
0
LAYER
2
DEFAULT_255_2_778
70
0
62
255
6
CONTINUOUS
0
LAYER
2
DEFAULT_255_1_234
70
0
62
255
6
CONTINUOUS
0
ENDTAB
0
ENDSEC
0
SECTION
2
ENTITIES
0
LINE
8
DEFAULT_255_2_778
10
5.4237004
20
10.4510499
11
37.1737004
21
10.4510499
0
LINE
8
DEFAULT_255_2_778
10
37.1737004
20
10.4510499
11
37.1737004
21
2.5135499
0
LINE
8
DEFAULT_255_2_778
10
37.1737004
20
2.5135499
11
5.4237004
21
2.5135499
0
LINE
8
DEFAULT_255_2_778
10
5.4237004
20
2.5135499
11
5.4237004
21
10.4510499
0
LINE
8
DEFAULT_255_2_778
10
16.007
20
10.4510499
11
16.007
21
2.5135499
0
LINE
8
DEFAULT_255_2_778
10
26.5904
20
10.4510499
11
26.5904
21
2.5135499
0
LINE
8
DEFAULT_255_2_778
10
18.6529
20
15.7426499
11
18.6529
21
7.8051499
0
LINE
8
DEFAULT_255_2_778
10
23.9445
20
15.7426499
11
23.9445
21
7.8051499
0
LINE
8
DEFAULT_255_2_778
10
21.2987
20
15.7427164
11
21.2987
21
-2.7780836
0
LINE
8
DEFAULT_255_2_778
10
21.2986834
20
6.7467999
11
23.9444834
21
6.7467999
0
LINE
8
DEFAULT_255_2_778
10
23.9444834
20
6.7467999
11
23.9444834
21
-2.7782001
0
LINE
8
DEFAULT_255_2_778
10
21.2987417
20
10.4509875
11
20.6372417
21
8.4665875
0
LINE
8
DEFAULT_255_2_778
10
20.6372417
20
8.4665875
11
21.9601417
21
8.4665875
0
LINE
8
DEFAULT_255_2_778
10
21.9601417
20
8.4665875
11
21.2987417
21
10.4509875
0
LINE
8
DEFAULT_255_2_778
10
13.3612417
20
6.0853375
11
13.3612417
21
2.5134375
0
LINE
8
DEFAULT_255_2_778
10
13.3612417
20
2.5134375
11
12.6997417
21
4.4978375
0
LINE
8
DEFAULT_255_2_778
10
12.6997417
20
4.4978375
11
14.0226417
21
4.4978375
0
LINE
8
DEFAULT_255_2_778
10
14.0226417
20
4.4978375
11
13.3612417
21
2.5134375
0
LINE
8
DEFAULT_255_2_778
10
30.9559625
20
7.8713062
11
34.5278625
21
2.5135062
0
LINE
8
DEFAULT_255_2_778
10
34.5278625
20
2.5135062
11
33.9986625
21
4.5640062
0
LINE
8
DEFAULT_255_2_778
10
33.9986625
20
4.5640062
11
32.8741625
21
3.7703062
0
LINE
8
DEFAULT_255_2_778
10
32.8741625
20
3.7703062
11
34.5278625
21
2.5135062
0
LINE
8
DEFAULT_255_2_778
10
23.9445417
20
2.5134875
11
23.2830417
21
4.4978875
0
LINE
8
DEFAULT_255_2_778
10
23.2830417
20
4.4978875
11
24.6059417
21
4.4978875
0
LINE
8
DEFAULT_255_2_778
10
24.6059417
20
4.4978875
11
23.9445417
21
2.5134875
0
LINE
8
DEFAULT_255_2_778
10
17.9914417
20
7.8052
11
19.3143417
21
7.8052
0
LINE
8
DEFAULT_255_2_778
10
23.2830417
20
7.8052
11
24.6059417
21
7.8052
0
LINE
8
DEFAULT_255_2_778
10
37.1737188
20
8.8635166
11
37.4677188
21
10.4510166
0
LINE
8
DEFAULT_255_2_778
10
37.4677188
20
10.4510166
11
37.9087188
21
7.8052166
0
LINE
8
DEFAULT_255_2_778
10
37.9087188
20
7.8052166
11
38.3498188
21
10.4510166
0
LINE
8
DEFAULT_255_2_778
10
38.3498188
20
10.4510166
11
38.7908188
21
7.8052166
0
LINE
8
DEFAULT_255_2_778
10
38.7908188
20
7.8052166
11
39.2319188
21
10.4510166
0
LINE
8
DEFAULT_255_2_778
10
39.2319188
20
10.4510166
11
39.6730188
21
7.8052166
0
LINE
8
DEFAULT_255_2_778
10
39.6730188
20
7.8052166
11
39.8201188
21
8.8635166
0
LINE
8
DEFAULT_255_2_778
10
5.4236834
20
9.3927166
11
5.1297834
21
7.8052166
0
LINE
8
DEFAULT_255_2_778
10
5.1297834
20
7.8052166
11
4.6886834
21
10.4510166
0
LINE
8
DEFAULT_255_2_778
10
4.6886834
20
10.4510166
11
4.2476834
21
7.8052166
0
LINE
8
DEFAULT_255_2_778
10
4.2476834
20
7.8052166
11
3.8065834
21
10.4510166
0
LINE
8
DEFAULT_255_2_778
10
3.8065834
20
10.4510166
11
3.3654834
21
7.8052166
0
LINE
8
DEFAULT_255_2_778
10
3.3654834
20
7.8052166
11
2.9249834
21
10.4510166
0
LINE
8
DEFAULT_255_2_778
10
2.9249834
20
10.4510166
11
2.7778834
21
9.3927166
0
ARC
8
DEFAULT_255_2_778
10
13.3584392
20
7.0136632
40
0.8790985
50
135.6657692
51
180.1503572
0
ARC
8
DEFAULT_255_2_778
10
13.3588842
20
7.014209
40
0.8790356
50
90.2249452
51
135.7114825
0
ARC
8
DEFAULT_255_2_778
10
13.3612107
20
6.9959386
40
0.8973177
50
89.9978894
51
90.3689202
0
ARC
8
DEFAULT_255_2_778
10
13.3635223
20
7.0143041
40
0.8789551
50
45.6619653
51
90.1485273
0
ARC
8
DEFAULT_255_2_778
10
13.3639557
20
7.0137115
40
0.8790763
50
0.2252168
51
45.709162
0
ARC
8
DEFAULT_255_2_778
10
13.3457262
20
7.0113893
40
0.8973177
50
359.9978894
51
0.3689202
0
ARC
8
DEFAULT_255_2_778
10
13.364049
20
7.0090828
40
0.8789977
50
315.6642148
51
0.1481882
0
ARC
8
DEFAULT_255_2_778
10
13.363568
20
7.0085087
40
0.8789408
50
270.227196
51
315.7128927
0
ARC
8
DEFAULT_255_2_778
10
13.361277
20
7.0264752
40
0.896919
50
269.9978796
51
270.3689996
0
ARC
8
DEFAULT_255_2_778
10
13.3589419
20
7.0086944
40
0.8791411
50
225.6680186
51
270.1500181
0
ARC
8
DEFAULT_255_2_778
10
13.3582554
20
7.0090276
40
0.8789
50
180.2269245
51
225.7152133
0
ARC
8
DEFAULT_255_2_778
10
13.3762627
20
7.011323
40
0.896919
50
179.9978796
51
180.3689996
0
LINE
8
DEFAULT_255_2_778
10
12.4793438
20
7.0113562
11
12.4793438
21
7.0113562
0
LINE
8
DEFAULT_255_2_778
10
12.0382834
20
7.0114583
11
13.3611834
21
8.3343583
0
LINE
8
DEFAULT_255_2_778
10
13.3611834
20
8.3343583
11
14.6840834
21
7.0114583
0
LINE
8
DEFAULT_255_2_778
10
13.3612
20
10.4510333
11
13.3612
21
8.3343333
0
LINE
8
DEFAULT_255_2_778
10
9.3923855
20
6.6476737
11
8.0671855
21
10.3930737
0
LINE
8
DEFAULT_255_2_778
10
8.0671855
20
10.3930737
11
9.3593855
21
8.7973737
0
LINE
8
DEFAULT_255_2_778
10
9.3593855
20
8.7973737
11
8.0515855
21
8.3014737
0
LINE
8
DEFAULT_255_2_778
10
8.0515855
20
8.3014737
11
8.0674855
21
10.3931737
0
ARC
8
DEFAULT_255_2_778
10
9.6414714
20
5.779713
40
0.8969274
50
10.4080275
51
18.0221281
0
ARC
8
DEFAULT_255_2_778
10
9.6584818
20
5.7828635
40
0.8796277
50
0.0086256
51
10.4063602
0
ARC
8
DEFAULT_255_2_778
10
9.6582172
20
5.7835385
40
0.8798925
50
290.8452645
51
359.9646733
0
ARC
8
DEFAULT_255_2_778
10
9.6486359
20
5.8063185
40
0.9045915
50
288.0015245
51
290.8989734
0
ARC
8
DEFAULT_255_2_778
10
9.6506287
20
5.7991479
40
0.8971562
50
280.4098249
51
288.0220104
0
ARC
8
DEFAULT_255_2_778
10
9.6537958
20
5.7820441
40
0.8797617
50
270.0086198
51
280.4082247
0
ARC
8
DEFAULT_255_2_778
10
9.6544344
20
5.7820462
40
0.879764
50
200.83933
51
269.967031
0
ARC
8
DEFAULT_255_2_778
10
9.6774717
20
5.7917568
40
0.9047491
50
197.9977155
51
200.8950519
0
ARC
8
DEFAULT_255_2_778
10
9.6699145
20
5.7897035
40
0.8969274
50
190.4080275
51
198.0221281
0
ARC
8
DEFAULT_255_2_778
10
9.6529041
20
5.786553
40
0.8796277
50
180.0086256
51
190.4063602
0
ARC
8
DEFAULT_255_2_778
10
9.6531687
20
5.7858781
40
0.8798925
50
110.8452645
51
179.9646733
0
ARC
8
DEFAULT_255_2_778
10
9.66275
20
5.7630981
40
0.9045915
50
108.0015245
51
110.8989734
0
ARC
8
DEFAULT_255_2_778
10
9.6606882
20
5.7704867
40
0.8969274
50
100.4080275
51
108.0221281
0
ARC
8
DEFAULT_255_2_778
10
9.6575377
20
5.7874971
40
0.8796277
50
90.0086256
51
100.4063602
0
ARC
8
DEFAULT_255_2_778
10
9.6568628
20
5.7872325
40
0.8798925
50
20.8452645
51
89.9646733
0
ARC
8
DEFAULT_255_2_778
10
9.6340828
20
5.7776513
40
0.9045915
50
18.0015245
51
20.8989734
0
LINE
8
DEFAULT_255_2_778
10
10.4943929
20
6.0572083
11
10.4943929
21
6.0572083
0
LINE
8
DEFAULT_255_2_778
10
10.9137269
20
6.1934904
11
10.0644269
21
4.5264904
0
LINE
8
DEFAULT_255_2_778
10
10.0644269
20
4.5264904
11
8.3974269
21
5.3758904
0
LINE
8
DEFAULT_255_2_778
10
10.7185618
20
2.5134411
11
10.0644618
21
4.5265411
0
LINE
8
DEFAULT_255_2_778
10
33.6017088
20
7.8052241
11
34.5300088
21
10.3932241
0
LINE
8
DEFAULT_255_2_778
10
34.5300088
20
10.3932241
11
33.2381088
21
8.7974241
0
LINE
8
DEFAULT_255_2_778
10
33.2381088
20
8.7974241
11
34.5459088
21
8.3015241
0
LINE
8
DEFAULT_255_2_778
10
34.5459088
20
8.3015241
11
34.5300088
21
10.3932241
0
ARC
8
DEFAULT_255_2_778
10
33.3070909
20
6.9391689
40
0.8794955
50
305.6572497
51
342.1381191
0
ARC
8
DEFAULT_255_2_778
10
33.3066786
20
6.9394736
40
0.8799834
50
270.036807
51
305.6674994
0
ARC
8
DEFAULT_255_2_778
10
33.3073806
20
6.9393689
40
0.8798785
50
259.5518845
51
269.9910982
0
ARC
8
DEFAULT_255_2_778
10
33.310578
20
6.9565947
40
0.8973983
50
251.9816649
51
259.5505743
0
ARC
8
DEFAULT_255_2_778
10
33.3027665
20
6.9402789
40
0.8794696
50
215.6363357
51
252.1368203
0
ARC
8
DEFAULT_255_2_778
10
33.3031471
20
6.9407791
40
0.8800704
50
180.0380466
51
215.6483631
0
ARC
8
DEFAULT_255_2_778
10
33.3027047
20
6.9400623
40
0.8796278
50
169.5936398
51
179.9913744
0
ARC
8
DEFAULT_255_2_778
10
33.3197151
20
6.9369118
40
0.8969274
50
161.9778719
51
169.5919725
0
ARC
8
DEFAULT_255_2_778
10
33.3038654
20
6.9446341
40
0.8794696
50
125.6363357
51
162.1368203
0
ARC
8
DEFAULT_255_2_778
10
33.3043656
20
6.9442535
40
0.8800704
50
90.0380466
51
125.6483631
0
ARC
8
DEFAULT_255_2_778
10
33.3036488
20
6.9446959
40
0.8796278
50
79.5936398
51
89.9913744
0
ARC
8
DEFAULT_255_2_778
10
33.3004983
20
6.9276855
40
0.8969274
50
71.9778719
51
79.5919725
0
ARC
8
DEFAULT_255_2_778
10
33.3083158
20
6.9435696
40
0.8794077
50
35.7768254
51
72.1420324
0
ARC
8
DEFAULT_255_2_778
10
33.3079091
20
6.9431027
40
0.8800106
50
0.0370563
51
35.7860096
0
ARC
8
DEFAULT_255_2_778
10
33.3081577
20
6.9438042
40
0.8797618
50
349.5917753
51
359.9913802
0
ARC
8
DEFAULT_255_2_778
10
33.2910539
20
6.9469713
40
0.8971562
50
341.9779896
51
349.5901751
0
LINE
8
DEFAULT_255_2_778
10
34.1441936
20
6.6694071
11
34.1441936
21
6.6694071
0
LINE
8
DEFAULT_255_2_778
10
32.0473269
20
7.3507904
11
32.8967269
21
5.6837904
0
LINE
8
DEFAULT_255_2_778
10
32.8967269
20
5.6837904
11
34.5636269
21
6.5331904
0
LINE
8
DEFAULT_255_2_778
10
31.8789162
20
2.5135
11
32.9075162
21
5.6885
0
ARC
8
DEFAULT_255_2_778
10
30.466841
20
8.6238134
40
0.8848555
50
194.5318131
51
214.0907667
0
ARC
8
DEFAULT_255_2_778
10
30.4586862
20
8.6209706
40
0.8762486
50
183.0339147
51
194.4856733
0
ARC
8
DEFAULT_255_2_778
10
30.4613915
20
8.6211751
40
0.878961
50
179.999653
51
183.0378939
0
ARC
8
DEFAULT_255_2_778
10
30.461702
20
8.6216408
40
0.8792714
50
132.106196
51
180.0299994
0
ARC
8
DEFAULT_255_2_778
10
30.4731361
20
8.6085236
40
0.8966699
50
123.9828401
51
132.0862514
0
ARC
8
DEFAULT_255_2_778
10
30.4679185
20
8.6189672
40
0.8850951
50
104.5281096
51
124.0806438
0
ARC
8
DEFAULT_255_2_778
10
30.4650884
20
8.6270973
40
0.8765154
50
93.0341332
51
104.4823451
0
ARC
8
DEFAULT_255_2_778
10
30.4652869
20
8.6243696
40
0.8792498
50
89.9994076
51
93.0376413
0
ARC
8
DEFAULT_255_2_778
10
30.4657906
20
8.6243744
40
0.8792454
50
42.1089703
51
90.0322305
0
ARC
8
DEFAULT_255_2_778
10
30.4527292
20
8.6130257
40
0.8965451
50
33.9830147
51
42.0873076
0
ARC
8
DEFAULT_255_2_778
10
30.4630675
20
8.6181757
40
0.8850951
50
14.5281096
51
34.0806438
0
ARC
8
DEFAULT_255_2_778
10
30.4711976
20
8.6210058
40
0.8765154
50
3.0341332
51
14.4823451
0
ARC
8
DEFAULT_255_2_778
10
30.4684699
20
8.6208073
40
0.8792498
50
359.9994076
51
3.0376413
0
ARC
8
DEFAULT_255_2_778
10
30.4684747
20
8.6203036
40
0.8792454
50
312.1089703
51
0.0322305
0
ARC
8
DEFAULT_255_2_778
10
30.457126
20
8.633365
40
0.8965451
50
303.9830147
51
312.0873076
0
ARC
8
DEFAULT_255_2_778
10
30.462276
20
8.6230267
40
0.8850951
50
284.5281096
51
304.0806438
0
ARC
8
DEFAULT_255_2_778
10
30.4651061
20
8.6148965
40
0.8765154
50
273.0341332
51
284.4823451
0
ARC
8
DEFAULT_255_2_778
10
30.4649076
20
8.6176243
40
0.8792498
50
269.9994076
51
273.0376413
0
ARC
8
DEFAULT_255_2_778
10
30.4644039
20
8.6176195
40
0.8792454
50
222.1089703
51
270.0322305
0
ARC
8
DEFAULT_255_2_778
10
30.4774653
20
8.6289682
40
0.8965451
50
213.9830147
51
222.0873076
0
LINE
8
DEFAULT_255_2_778
10
29.7340473
20
8.1278469
11
29.7340473
21
8.1278469
0
LINE
8
DEFAULT_255_2_778
10
29.3684492
20
7.8811629
11
29.7254492
21
9.7176629
0
LINE
8
DEFAULT_255_2_778
10
29.7254492
20
9.7176629
11
31.5619492
21
9.3606629
0
LINE
8
DEFAULT_255_2_778
10
31.882
20
10.4510166
11
31.882
21
7.8052166
0
LINE
8
DEFAULT_255_2_778
10
31.2205417
20
7.8052
11
32.5434417
21
7.8052
0
LINE
8
DEFAULT_255_2_778
10
29.2361531
20
10.4510021
11
29.7322531
21
9.7234021
0
LINE
8
DEFAULT_255_2_778
10
10.7154
20
10.4510166
11
10.7154
21
7.8052166
0
LINE
8
DEFAULT_255_2_778
10
10.0539417
20
7.8052
11
11.3768417
21
7.8052
0
LINE
8
DEFAULT_255_2_778
10
37.1736834
20
5.6885
11
39.8194834
21
5.6885
0
LINE
8
DEFAULT_255_2_778
10
39.8194834
20
5.6885
11
39.8194834
21
2.5135
0
LINE
8
DEFAULT_255_2_778
10
39.8194834
20
2.5135
11
37.1736834
21
2.5135
0
LINE
8
DEFAULT_255_2_778
10
37.1736834
20
2.5135
11
37.1736834
21
5.6885
0
LINE
8
DEFAULT_255_2_778
10
37.8351417
20
2.5135
11
39.1580417
21
5.6885
0
LINE
8
DEFAULT_255_2_778
10
2.7778834
20
5.6885
11
5.4236834
21
5.6885
0
LINE
8
DEFAULT_255_2_778
10
5.4236834
20
5.6885
11
5.4236834
21
2.5135
0
LINE
8
DEFAULT_255_2_778
10
5.4236834
20
2.5135
11
2.7778834
21
2.5135
0
LINE
8
DEFAULT_255_2_778
10
2.7778834
20
2.5135
11
2.7778834
21
5.6885
0
LINE
8
DEFAULT_255_2_778
10
3.4393417
20
2.5135
11
4.7622417
21
5.6885
0
LINE
8
DEFAULT_255_1_234
10
16.2734137
20
14.6291433
11
16.2734137
21
13.4541
0
LINE
8
DEFAULT_255_1_234
10
16.2734137
20
13.4541
11
16.1240234
21
13.4541
0
LINE
8
DEFAULT_255_1_234
10
16.1240234
20
13.4541
11
16.1240234
21
14.4444133
0
LINE
8
DEFAULT_255_1_234
10
16.1240234
20
14.4444133
11
15.8244396
21
14.3343785
0
LINE
8
DEFAULT_255_1_234
10
15.8244396
20
14.3343785
11
15.8244396
21
14.4693117
0
LINE
8
DEFAULT_255_1_234
10
15.8244396
20
14.4693117
11
16.2501217
21
14.6291433
0
LINE
8
DEFAULT_255_1_234
10
16.2501217
20
14.6291433
11
16.2734137
21
14.6291433
0
LINE
8
DEFAULT_255_1_234
10
16.9247877
20
13.9898169
11
16.9247877
21
14.1110962
0
LINE
8
DEFAULT_255_1_234
10
16.9247877
20
14.1110962
11
17.0364289
21
14.1110962
0
LINE
8
DEFAULT_255_1_234
10
16.8460767
20
14.3167087
11
16.6974895
21
14.3167087
0
LINE
8
DEFAULT_255_1_234
10
16.6870482
20
13.7625188
11
16.8364386
21
13.7625188
0
LINE
8
DEFAULT_255_1_234
10
17.0364289
20
13.9898169
11
16.9247877
21
13.9898169
0
ARC
8
DEFAULT_255_1_234
10
17.0335155
20
14.4503713
40
0.3392876
50
270.4919872
51
281.8951556
0
ARC
8
DEFAULT_255_1_234
10
17.0576417
20
14.3401702
40
0.2264817
50
281.6691735
51
301.2943132
0
ARC
8
DEFAULT_255_1_234
10
17.0746627
20
14.3090304
40
0.1910381
50
301.7833094
51
311.7545298
0
ARC
8
DEFAULT_255_1_234
10
17.0838203
20
14.2988748
40
0.1773635
50
311.7323931
51
354.2802411
0
ARC
8
DEFAULT_255_1_234
10
17.0111828
20
14.3113722
40
0.2509385
50
353.0937916
51
0.1181479
0
ARC
8
DEFAULT_255_1_234
10
16.9650613
20
14.3161386
40
0.2970898
50
359.1805295
51
15.0453146
0
ARC
8
DEFAULT_255_1_234
10
17.099645
20
14.3553992
40
0.1569564
50
13.9577229
51
77.6713066
0
ARC
8
DEFAULT_255_1_234
10
17.0609979
20
14.2168949
40
0.3006298
50
76.1116566
51
90.7026153
0
ARC
8
DEFAULT_255_1_234
10
17.0550817
20
14.2442545
40
0.2732568
50
89.5324876
51
103.531937
0
ARC
8
DEFAULT_255_1_234
10
17.0350261
20
14.3241884
40
0.1908508
50
103.2931773
51
133.5619022
0
ARC
8
DEFAULT_255_1_234
10
17.030575
20
14.3301375
40
0.1834746
50
133.8349307
51
173.5344437
0
ARC
8
DEFAULT_255_1_234
10
17.1028793
20
14.3173213
40
0.2568033
50
172.5096846
51
180.1366907
0
ARC
8
DEFAULT_255_1_234
10
17.0077687
20
14.3207622
40
0.3103056
50
155.3484492
51
180.7484736
0
ARC
8
DEFAULT_255_1_234
10
17.0028776
20
14.3178846
40
0.3070957
50
131.5744599
51
154.4798489
0
ARC
8
DEFAULT_255_1_234
10
17.0341923
20
14.286231
40
0.3515643
50
96.9875458
51
131.9690667
0
ARC
8
DEFAULT_255_1_234
10
17.0561403
20
14.1616636
40
0.4779224
50
89.8596053
51
97.7825159
0
ARC
8
DEFAULT_255_1_234
10
17.0609466
20
14.1354616
40
0.5041361
50
78.3655447
51
90.4131539
0
ARC
8
DEFAULT_255_1_234
10
17.0967384
20
14.3013887
40
0.3344039
50
56.6229102
51
78.638727
0
ARC
8
DEFAULT_255_1_234
10
17.1182328
20
14.3389805
40
0.2912001
50
47.0253525
51
56.0854072
0
ARC
8
DEFAULT_255_1_234
10
17.1202108
20
14.3429223
40
0.2869704
50
10.9208013
51
46.7778124
0
ARC
8
DEFAULT_255_1_234
10
16.9838174
20
14.3113857
40
0.426899
50
359.6364486
51
11.6087304
0
ARC
8
DEFAULT_255_1_234
10
17.1673018
20
14.3098752
40
0.243409
50
332.3549906
51
359.7179418
0
ARC
8
DEFAULT_255_1_234
10
17.102262
20
14.3407142
40
0.3153459
50
325.2333722
51
332.8745602
0
ARC
8
DEFAULT_255_1_234
10
17.1175244
20
14.3300828
40
0.2967456
50
292.9802137
51
325.2392345
0
ARC
8
DEFAULT_255_1_234
10
17.0900617
20
14.3834863
40
0.3566604
50
292.5402179
51
293.6924929
0
ARC
8
DEFAULT_255_1_234
10
17.1293213
20
13.7380091
40
0.3307468
50
57.6435486
51
72.8625112
0
ARC
8
DEFAULT_255_1_234
10
17.1647713
20
13.7954549
40
0.2632492
50
36.7248896
51
57.4697979
0
ARC
8
DEFAULT_255_1_234
10
17.1636346
20
13.796722
40
0.2634081
50
8.0545065
51
36.356114
0
ARC
8
DEFAULT_255_1_234
10
17.0773531
20
13.7812174
40
0.3510261
50
359.8320645
51
8.5869982
0
ARC
8
DEFAULT_255_1_234
10
17.0398307
20
13.7764101
40
0.3885653
50
343.9829931
51
0.5571613
0
ARC
8
DEFAULT_255_1_234
10
17.1284504
20
13.7521438
40
0.2966924
50
311.6359546
51
343.7651759
0
ARC
8
DEFAULT_255_1_234
10
17.0906074
20
13.7948102
40
0.3537231
50
279.7829875
51
311.6255694
0
ARC
8
DEFAULT_255_1_234
10
17.060485
20
13.938528
40
0.5004971
50
269.7286406
51
280.3856417
0
ARC
8
DEFAULT_255_1_234
10
17.0542922
20
13.9343996
40
0.4963778
50
256.6828919
51
270.4412052
0
ARC
8
DEFAULT_255_1_234
10
17.0204218
20
13.7959394
40
0.3538406
50
229.4223008
51
256.8556159
0
ARC
8
DEFAULT_255_1_234
10
16.9789611
20
13.7492736
40
0.2914296
50
181.818294
51
229.6455059
0
ARC
8
DEFAULT_255_1_234
10
17.0829567
20
13.7623496
40
0.3959084
50
179.9755256
51
183.2323064
0
ARC
8
DEFAULT_255_1_234
10
17.0657313
20
13.7603037
40
0.2293034
50
179.4465117
51
196.2869258
0
ARC
8
DEFAULT_255_1_234
10
17.0169721
20
13.7469651
40
0.1787621
50
196.5661473
51
227.705904
0
ARC
8
DEFAULT_255_1_234
10
17.0333816
20
13.7653155
40
0.2033784
50
227.7652068
51
257.8762805
0
ARC
8
DEFAULT_255_1_234
10
17.0558786
20
13.8596156
40
0.3003081
50
257.4584385
51
270.426602
0
ARC
8
DEFAULT_255_1_234
10
17.0604352
20
13.8885996
40
0.329292
50
269.5962073
51
280.8789248
0
ARC
8
DEFAULT_255_1_234
10
17.0833881
20
13.7739685
40
0.2123908
50
280.6346389
51
299.8595945
0
ARC
8
DEFAULT_255_1_234
10
17.1024788
20
13.7377212
40
0.171457
50
300.3576302
51
314.5517981
0
ARC
8
DEFAULT_255_1_234
10
17.0941848
20
13.7437919
40
0.1816095
50
315.0728369
51
345.0431014
0
ARC
8
DEFAULT_255_1_234
10
17.0018662
20
13.7706841
40
0.2777492
50
344.5986631
51
357.9269593
0
ARC
8
DEFAULT_255_1_234
10
16.9122989
20
13.7768276
40
0.3674917
50
357.4748886
51
0.0231117
0
ARC
8
DEFAULT_255_1_234
10
17.0146098
20
13.7792679
40
0.2651907
50
359.5047933
51
13.4239635
0
ARC
8
DEFAULT_255_1_234
10
17.1012741
20
13.8014478
40
0.1757509
50
12.9498199
51
48.7551375
0
ARC
8
DEFAULT_255_1_234
10
17.0830475
20
13.77654
40
0.2065134
50
49.5088623
51
72.1836453
0
ARC
8
DEFAULT_255_1_234
10
17.0472628
20
13.6703291
40
0.3185836
50
71.9010081
51
84.3554254
0
ARC
8
DEFAULT_255_1_234
10
17.031126
20
13.5342326
40
0.4556151
50
84.0193428
51
89.333121
0
LINE
8
DEFAULT_255_1_234
10
17.8195233
20
14.0098963
11
17.7006536
21
14.0404169
0
LINE
8
DEFAULT_255_1_234
10
17.7006536
20
14.0404169
11
17.7600885
21
14.6235211
0
LINE
8
DEFAULT_255_1_234
10
17.7600885
20
14.6235211
11
18.3592562
21
14.6235211
0
LINE
8
DEFAULT_255_1_234
10
18.3592562
20
14.6235211
11
18.3592562
21
14.4861784
0
LINE
8
DEFAULT_255_1_234
10
18.3592562
20
14.4861784
11
17.8861868
21
14.4861784
0
LINE
8
DEFAULT_255_1_234
10
17.8861868
20
14.4861784
11
17.8508471
21
14.1673184
0
LINE
8
DEFAULT_255_1_234
10
17.6588886
20
13.7617156
11
17.799444
21
13.7617156
0
LINE
8
DEFAULT_255_1_234
10
17.8588789
20
14.0420232
11
17.8195233
21
14.0098963
0
ARC
8
DEFAULT_255_1_234
10
18.0363255
20
13.849323
40
0.3681349
50
93.7182161
51
120.2538958
0
ARC
8
DEFAULT_255_1_234
10
18.0457518
20
13.7685394
40
0.449379
50
89.9660152
51
94.2496022
0
ARC
8
DEFAULT_255_1_234
10
18.0498252
20
13.8274549
40
0.390482
50
73.8043271
51
90.5585896
0
ARC
8
DEFAULT_255_1_234
10
18.0733149
20
13.9132602
40
0.3015334
50
41.3071453
51
73.5430202
0
ARC
8
DEFAULT_255_1_234
10
18.0316976
20
13.8774324
40
0.3564457
50
13.5075983
51
41.2174222
0
ARC
8
DEFAULT_255_1_234
10
17.867518
20
13.8344486
40
0.5261351
50
1.1331335
51
13.8829381
0
ARC
8
DEFAULT_255_1_234
10
17.7263549
20
13.8268665
40
0.6674378
50
359.9919444
51
1.544251
0
ARC
8
DEFAULT_255_1_234
10
17.8540375
20
13.822728
40
0.5397702
50
347.8572367
51
0.4293338
0
ARC
8
DEFAULT_255_1_234
10
18.0290693
20
13.7830736
40
0.3603188
50
323.673004
51
348.1672506
0
ARC
8
DEFAULT_255_1_234
10
18.0585201
20
13.7651168
40
0.3259678
50
316.8171152
51
323.1492751
0
ARC
8
DEFAULT_255_1_234
10
18.064639
20
13.761446
40
0.3189975
50
281.8396411
51
316.5457803
0
ARC
8
DEFAULT_255_1_234
10
18.0270654
20
13.9169762
40
0.4789527
50
269.5770101
51
282.4214771
0
ARC
8
DEFAULT_255_1_234
10
18.0199465
20
13.8956125
40
0.45759
50
256.2427136
51
270.4486331
0
ARC
8
DEFAULT_255_1_234
10
17.9900368
20
13.7756229
40
0.3339303
50
228.9023911
51
256.3314342
0
ARC
8
DEFAULT_255_1_234
10
17.98266
20
13.7639746
40
0.32031
50
193.753695
51
228.5271154
0
ARC
8
DEFAULT_255_1_234
10
18.1064554
20
13.80028
40
0.4492253
50
184.924711
51
194.497588
0
ARC
8
DEFAULT_255_1_234
10
18.1257121
20
13.8038591
40
0.3289787
50
187.3600538
51
198.6732863
0
ARC
8
DEFAULT_255_1_234
10
18.0207415
20
13.7674674
40
0.217884
50
198.4451669
51
217.794479
0
ARC
8
DEFAULT_255_1_234
10
17.991159
20
13.7465085
40
0.1816698
50
218.2887171
51
228.5612368
0
ARC
8
DEFAULT_255_1_234
10
18.0009377
20
13.7596963
40
0.1980329
50
228.9654866
51
258.1234728
0
ARC
8
DEFAULT_255_1_234
10
18.0215087
20
13.8477833
40
0.2884748
50
257.7258293
51
270.401361
0
ARC
8
DEFAULT_255_1_234
10
18.0259974
20
13.8032821
40
0.2439788
50
269.4204404
51
286.4209037
0
ARC
8
DEFAULT_255_1_234
10
18.0408461
20
13.7493657
40
0.1880666
50
286.7251356
51
320.600362
0
ARC
8
DEFAULT_255_1_234
10
18.0025286
20
13.7804595
40
0.2374121
50
320.6712579
51
344.5441685
0
ARC
8
DEFAULT_255_1_234
10
17.8868612
20
13.8144045
40
0.3579479
50
344.2412205
51
356.7357071
0
ARC
8
DEFAULT_255_1_234
10
17.7619761
20
13.8247444
40
0.4832297
50
356.3548756
51
0.0500261
0
ARC
8
DEFAULT_255_1_234
10
17.895627
20
13.827865
40
0.3495889
50
359.5576869
51
12.953486
0
ARC
8
DEFAULT_255_1_234
10
18.0011167
20
13.8534434
40
0.2410532
50
12.6490276
51
41.6081334
0
ARC
8
DEFAULT_255_1_234
10
18.0241538
20
13.8730321
40
0.2108218
50
41.7850273
51
85.9892764
0
ARC
8
DEFAULT_255_1_234
10
18.0118275
20
13.7917462
40
0.2928454
50
84.6957577
51
90.0676183
0
ARC
8
DEFAULT_255_1_234
10
18.0094759
20
13.7248716
40
0.3597255
50
89.6804936
51
99.1614436
0
ARC
8
DEFAULT_255_1_234
10
17.988939
20
13.8476131
40
0.235281
50
98.9830931
51
113.8908934
0
ARC
8
DEFAULT_255_1_234
10
17.96598
20
13.9017587
40
0.176479
50
114.1950727
51
127.3641004
0
LINE
8
DEFAULT_255_1_234
10
19.3322119
20
-1.7212208
11
19.3322119
21
-1.8425
0
LINE
8
DEFAULT_255_1_234
10
19.3322119
20
-1.8425
11
18.565984
21
-1.8425
0
LINE
8
DEFAULT_255_1_234
10
18.565984
20
-1.8425
11
18.565984
21
-1.7356779
0
LINE
8
DEFAULT_255_1_234
10
18.565984
20
-1.7356779
11
18.9707836
21
-1.2859005
0
LINE
8
DEFAULT_255_1_234
10
18.6920823
20
-1.0176405
11
18.5434952
21
-1.0176405
0
LINE
8
DEFAULT_255_1_234
10
19.0583296
20
-1.3814782
11
18.7450918
21
-1.7212208
0
LINE
8
DEFAULT_255_1_234
10
18.7450918
20
-1.7212208
11
19.3322119
21
-1.7212208
0
ARC
8
DEFAULT_255_1_234
10
17.621767
20
-0.0929473
40
1.8008286
50
318.5132453
51
320.7828378
0
ARC
8
DEFAULT_255_1_234
10
18.1504644
20
-0.5232574
40
1.1191493
50
320.7372736
51
323.9737074
0
ARC
8
DEFAULT_255_1_234
10
18.5424501
20
-0.8072639
40
0.6350923
50
323.8961724
51
328.6421089
0
ARC
8
DEFAULT_255_1_234
10
18.7471096
20
-0.9334969
40
0.3946393
50
328.8299013
51
331.789948
0
ARC
8
DEFAULT_255_1_234
10
18.8468274
20
-0.9849491
40
0.2824501
50
331.4255242
51
352.9364833
0
ARC
8
DEFAULT_255_1_234
10
18.8604775
20
-0.9880024
40
0.2685315
50
353.2248685
51
0.0169286
0
ARC
8
DEFAULT_255_1_234
10
18.8814652
20
-0.985705
40
0.2475536
50
359.4866256
51
15.9339782
0
ARC
8
DEFAULT_255_1_234
10
18.9321637
20
-0.9720714
40
0.1950618
50
16.1714718
51
43.5284424
0
ARC
8
DEFAULT_255_1_234
10
18.9398946
20
-0.9643427
40
0.184134
50
43.4415429
51
83.1661404
0
ARC
8
DEFAULT_255_1_234
10
18.9264864
20
-1.0380229
40
0.258926
50
82.160215
51
90.1505798
0
ARC
8
DEFAULT_255_1_234
10
18.9233291
20
-1.0917135
40
0.3126255
50
89.5460705
51
102.5418777
0
ARC
8
DEFAULT_255_1_234
10
18.8990377
20
-0.9886335
40
0.2067346
50
102.1739365
51
129.2061916
0
ARC
8
DEFAULT_255_1_234
10
18.8911449
20
-0.9761906
40
0.1921118
50
129.7279328
51
135.7542026
0
ARC
8
DEFAULT_255_1_234
10
18.9032977
20
-0.9858955
40
0.2075944
50
136.175737
51
166.3674722
0
ARC
8
DEFAULT_255_1_234
10
19.0039896
20
-1.0128818
40
0.3118201
50
165.9092917
51
178.8683903
0
ARC
8
DEFAULT_255_1_234
10
19.0904757
20
-1.0175821
40
0.3983935
50
178.438168
51
180.0083905
0
ARC
8
DEFAULT_255_1_234
10
18.9503359
20
-1.0136769
40
0.4068601
50
163.2878735
51
180.5581814
0
ARC
8
DEFAULT_255_1_234
10
18.8701621
20
-0.991616
40
0.3237344
50
133.454115
51
162.9470031
0
ARC
8
DEFAULT_255_1_234
10
18.8880162
20
-1.0106
40
0.349795
50
100.7869394
51
133.4384016
0
ARC
8
DEFAULT_255_1_234
10
18.9227934
20
-1.1654681
40
0.5084616
50
89.6605301
51
101.3704185
0
ARC
8
DEFAULT_255_1_234
10
18.9294273
20
-1.1593504
40
0.502348
50
78.2171172
51
90.4130393
0
ARC
8
DEFAULT_255_1_234
10
18.9649351
20
-0.9969363
40
0.3361092
50
55.9268222
51
78.4888551
0
ARC
8
DEFAULT_255_1_234
10
18.9845791
20
-0.9630676
40
0.2970617
50
47.9292255
51
55.4054003
0
ARC
8
DEFAULT_255_1_234
10
18.9947352
20
-0.9527498
40
0.2825983
50
4.3347696
51
48.0560701
0
ARC
8
DEFAULT_255_1_234
10
18.8851745
20
-0.9697399
40
0.393225
50
359.925209
51
5.5967654
0
ARC
8
DEFAULT_255_1_234
10
18.9280637
20
-0.9641184
40
0.3503892
50
337.8914096
51
358.9967724
0
ARC
8
DEFAULT_255_1_234
10
18.6567049
20
-0.8594294
40
0.6412172
50
326.9135351
51
338.3505194
0
ARC
8
DEFAULT_255_1_234
10
18.2581353
20
-0.6039716
40
1.1146189
50
319.6472867
51
327.095818
0
ARC
8
DEFAULT_255_1_234
10
17.8748356
20
-0.2878
40
1.6114559
50
317.2586784
51
319.9046139
0
LINE
8
DEFAULT_255_1_234
10
20.1169127
20
-0.6730789
11
20.1169127
21
-1.449748
0
LINE
8
DEFAULT_255_1_234
10
20.1169127
20
-1.449748
11
20.2791538
21
-1.449748
0
LINE
8
DEFAULT_255_1_234
10
20.2791538
20
-1.449748
11
20.2791538
21
-1.5710272
0
LINE
8
DEFAULT_255_1_234
10
20.2791538
20
-1.5710272
11
20.1169127
21
-1.5710272
0
LINE
8
DEFAULT_255_1_234
10
20.1169127
20
-1.5710272
11
20.1169127
21
-1.8425
0
LINE
8
DEFAULT_255_1_234
10
20.1169127
20
-1.8425
11
19.9675224
21
-1.8425
0
LINE
8
DEFAULT_255_1_234
10
19.9675224
20
-1.8425
11
19.9675224
21
-1.5710272
0
LINE
8
DEFAULT_255_1_234
10
19.9675224
20
-1.5710272
11
19.4350181
21
-1.5710272
0
LINE
8
DEFAULT_255_1_234
10
19.4350181
20
-1.5710272
11
19.4350181
21
-1.4834813
0
LINE
8
DEFAULT_255_1_234
10
19.4350181
20
-1.4834813
11
19.9586875
21
-0.6730789
0
LINE
8
DEFAULT_255_1_234
10
19.9586875
20
-0.6730789
11
20.1169127
21
-0.6730789
0
LINE
8
DEFAULT_255_1_234
10
19.9498525
20
-0.9084088
11
19.6036846
21
-1.449748
0
LINE
8
DEFAULT_255_1_234
10
19.6036846
20
-1.449748
11
19.9675224
21
-1.449748
0
LINE
8
DEFAULT_255_1_234
10
19.9675224
20
-1.449748
11
19.9675224
21
-0.8762819
0
LINE
8
DEFAULT_255_1_234
10
19.9675224
20
-0.8762819
11
19.9498525
21
-0.9084088
0
ENDSEC
0
EOF