0
SECTION
2
HEADER
9
$MEASUREMENT
70
1
0
ENDSEC
0
SECTION
2
TABLES
0
TABLE
2
LTYPE
0
LTYPE
72
65
70
64
2
CONTINUOUS
3
______
73
0
40
0
0
ENDTAB
0
TABLE
2
LAYER
0
LAYER
2
DEFAULT_255_2_778
70
0
62
255
6
CONTINUOUS
0
LAYER
2
DEFAULT_255_1_388
70
0
62
255
6
CONTINUOUS
0
ENDTAB
0
ENDSEC
0
SECTION
2
ENTITIES
0
LINE
8
DEFAULT_255_2_778
10
7.4083335
20
10.4510499
11
17.9916335
21
10.4510499
0
LINE
8
DEFAULT_255_2_778
10
17.9916335
20
10.4510499
11
17.9916335
21
2.5135499
0
LINE
8
DEFAULT_255_2_778
10
17.9916335
20
2.5135499
11
7.4083335
21
2.5135499
0
LINE
8
DEFAULT_255_2_778
10
7.4083335
20
2.5135499
11
7.4083335
21
10.4510499
0
LINE
8
DEFAULT_255_2_778
10
12.6997
20
10.4510499
11
12.6997
21
2.5135499
0
LINE
8
DEFAULT_255_2_778
10
10.0539417
20
2.5135499
11
10.0539417
21
10.4510499
0
LINE
8
DEFAULT_255_2_778
10
10.0539417
20
10.4510499
11
9.3924417
21
8.4666499
0
LINE
8
DEFAULT_255_2_778
10
9.3924417
20
8.4666499
11
10.7153417
21
8.4666499
0
LINE
8
DEFAULT_255_2_778
10
10.7153417
20
8.4666499
11
10.0539417
21
10.4510499
0
LINE
8
DEFAULT_255_2_778
10
15.3456
20
15.7426499
11
15.3456
21
7.8051499
0
LINE
8
DEFAULT_255_2_778
10
16.0070417
20
7.8052
11
14.6841417
21
7.8052
0
LINE
8
DEFAULT_255_2_778
10
15.3456
20
-2.7781501
11
15.3456
21
5.1593499
0
LINE
8
DEFAULT_255_2_778
10
16.0070417
20
5.1593
11
14.6841417
21
5.1593
0
LINE
8
DEFAULT_255_2_778
10
7.4080834
20
4.3656
11
4.7622834
21
4.3656
0
LINE
8
DEFAULT_255_2_778
10
7.4080834
20
3.3073
11
4.7622834
21
3.3073
0
ARC
8
DEFAULT_255_2_778
10
4.7595332
20
3.8394135
40
1.3202532
50
148.7968675
51
180.1300552
0
ARC
8
DEFAULT_255_2_778
10
4.7586736
20
3.8398468
40
1.3192936
50
97.5665172
51
148.7936255
0
ARC
8
DEFAULT_255_2_778
10
4.761779
20
3.8131258
40
1.3461909
50
89.9827905
51
97.547783
0
ARC
8
DEFAULT_255_2_778
10
4.7651802
20
3.8390668
40
1.3202532
50
58.7968675
51
90.1300552
0
ARC
8
DEFAULT_255_2_778
10
4.7656136
20
3.8399264
40
1.3192936
50
7.5665172
51
58.7936255
0
ARC
8
DEFAULT_255_2_778
10
4.7388926
20
3.836821
40
1.3461909
50
359.9827905
51
7.547783
0
ARC
8
DEFAULT_255_2_778
10
4.7648335
20
3.8334198
40
1.3202532
50
328.7968675
51
0.1300552
0
ARC
8
DEFAULT_255_2_778
10
4.7656931
20
3.8329864
40
1.3192936
50
277.5665172
51
328.7936255
0
ARC
8
DEFAULT_255_2_778
10
4.7625877
20
3.8597074
40
1.3461909
50
269.9827905
51
277.547783
0
ARC
8
DEFAULT_255_2_778
10
4.7591865
20
3.8337665
40
1.3202532
50
238.7968675
51
270.1300552
0
ARC
8
DEFAULT_255_2_778
10
4.7587532
20
3.8329069
40
1.3192936
50
187.5665172
51
238.7936255
0
ARC
8
DEFAULT_255_2_778
10
4.7854742
20
3.8360123
40
1.3461909
50
179.9827905
51
187.547783
0
LINE
8
DEFAULT_255_2_778
10
3.4392834
20
3.8364166
11
3.4392834
21
3.8364166
0
ARC
8
DEFAULT_255_2_778
10
4.7607557
20
3.8378443
40
0.6600157
50
89.871003
51
180.128997
0
ARC
8
DEFAULT_255_2_778
10
4.763649
20
3.8378655
40
0.6599943
50
359.8691577
51
90.1221758
0
ARC
8
DEFAULT_255_2_778
10
4.7636705
20
3.8349295
40
0.6599728
50
269.8759594
51
0.1240406
0
ARC
8
DEFAULT_255_2_778
10
4.7607345
20
3.8349508
40
0.6599942
50
179.8778094
51
270.1308423
0
LINE
8
DEFAULT_255_2_778
10
4.1007417
20
3.8363583
11
4.1007417
21
3.8363583
0
LINE
8
DEFAULT_255_2_778
10
17.9914188
20
3.7835
11
18.2854188
21
5.6885
0
LINE
8
DEFAULT_255_2_778
10
18.2854188
20
5.6885
11
18.7264188
21
2.5135
0
LINE
8
DEFAULT_255_2_778
10
18.7264188
20
2.5135
11
19.1675188
21
5.6885
0
LINE
8
DEFAULT_255_2_778
10
19.1675188
20
5.6885
11
19.6085188
21
2.5135
0
LINE
8
DEFAULT_255_2_778
10
19.6085188
20
2.5135
11
20.0496188
21
5.6885
0
LINE
8
DEFAULT_255_2_778
10
20.0496188
20
5.6885
11
20.4907188
21
2.5135
0
LINE
8
DEFAULT_255_2_778
10
20.4907188
20
2.5135
11
20.6378188
21
3.7835
0
LINE
8
DEFAULT_255_1_388
10
12.8465985
20
-0.5089852
11
12.8465985
21
-1.8309
0
LINE
8
DEFAULT_255_1_388
10
12.8465985
20
-1.8309
11
12.6785355
21
-1.8309
0
LINE
8
DEFAULT_255_1_388
10
12.6785355
20
-1.8309
11
12.6785355
21
-0.716805
0
LINE
8
DEFAULT_255_1_388
10
12.6785355
20
-0.716805
11
12.341506
21
-0.8405934
0
LINE
8
DEFAULT_255_1_388
10
12.341506
20
-0.8405934
11
12.341506
21
-0.6887945
0
LINE
8
DEFAULT_255_1_388
10
12.341506
20
-0.6887945
11
12.8203951
21
-0.5089852
0
LINE
8
DEFAULT_255_1_388
10
12.8203951
20
-0.5089852
11
12.8465985
21
-0.5089852
0
LINE
8
DEFAULT_255_1_388
10
13.1509318
20
13.6021382
11
13.1509318
21
13.4657
0
LINE
8
DEFAULT_255_1_388
10
13.1509318
20
13.4657
11
12.2889313
21
13.4657
0
LINE
8
DEFAULT_255_1_388
10
12.2889313
20
13.4657
11
12.2889313
21
13.5858741
0
LINE
8
DEFAULT_255_1_388
10
12.2889313
20
13.5858741
11
12.7443278
21
14.0918702
0
LINE
8
DEFAULT_255_1_388
10
12.4307909
20
14.3936607
11
12.2636315
21
14.3936607
0
LINE
8
DEFAULT_255_1_388
10
12.8428163
20
13.984346
11
12.4904262
21
13.6021382
0
LINE
8
DEFAULT_255_1_388
10
12.4904262
20
13.6021382
11
13.1509318
21
13.6021382
0
ARC
8
DEFAULT_255_1_388
10
11.2267337
20
15.4338983
40
2.0258655
50
318.5132526
51
320.7829045
0
ARC
8
DEFAULT_255_1_388
10
11.8215294
20
14.9497929
40
1.2589638
50
320.7372878
51
323.9739031
0
ARC
8
DEFAULT_255_1_388
10
12.2624226
20
14.6303554
40
0.7145141
50
323.8962701
51
328.64194
0
ARC
8
DEFAULT_255_1_388
10
12.4926484
20
14.4883545
40
0.4440242
50
328.8294576
51
331.7891185
0
ARC
8
DEFAULT_255_1_388
10
12.6048804
20
14.4304374
40
0.3177517
50
331.4254512
51
352.9365785
0
ARC
8
DEFAULT_255_1_388
10
12.6201804
20
14.427005
40
0.3021496
50
353.2257659
51
0.0166158
0
ARC
8
DEFAULT_255_1_388
10
12.6438564
20
14.4295894
40
0.2784847
50
359.486299
51
15.9343185
0
ARC
8
DEFAULT_255_1_388
10
12.7008831
20
14.4449269
40
0.2194403
50
16.1712913
51
43.5286088
0
ARC
8
DEFAULT_255_1_388
10
12.7095776
20
14.4536191
40
0.2071504
50
43.4417391
51
83.1661095
0
ARC
8
DEFAULT_255_1_388
10
12.6944937
20
14.3707316
40
0.2912888
50
82.160179
51
90.1505708
0
ARC
8
DEFAULT_255_1_388
10
12.6909418
20
14.3103279
40
0.3517025
50
89.5460741
51
102.5418361
0
ARC
8
DEFAULT_255_1_388
10
12.6636138
20
14.4262933
40
0.2325748
50
102.1738499
51
129.206123
0
ARC
8
DEFAULT_255_1_388
10
12.6547592
20
14.4402664
40
0.2161591
50
129.72865
51
135.753947
0
ARC
8
DEFAULT_255_1_388
10
12.6684074
20
14.4293728
40
0.2335433
50
136.1757367
51
166.3673339
0
ARC
8
DEFAULT_255_1_388
10
12.7816762
20
14.3990148
40
0.3507873
50
165.9090694
51
178.8684636
0
ARC
8
DEFAULT_255_1_388
10
12.8792534
20
14.3937263
40
0.4484624
50
178.4391136
51
180.0083808
0
ARC
8
DEFAULT_255_1_388
10
12.7213235
20
14.3981197
40
0.4577138
50
163.2878482
51
180.5581842
0
ARC
8
DEFAULT_255_1_388
10
12.6311276
20
14.4229393
40
0.3641968
50
133.4540601
51
162.947111
0
ARC
8
DEFAULT_255_1_388
10
12.6512158
20
14.4015789
40
0.3935189
50
100.7869829
51
133.4382499
0
ARC
8
DEFAULT_255_1_388
10
12.6903403
20
14.2273399
40
0.5720313
50
89.660664
51
101.3702276
0
ARC
8
DEFAULT_255_1_388
10
12.6978012
20
14.2342263
40
0.5651495
50
78.2172678
51
90.412935
0
ARC
8
DEFAULT_255_1_388
10
12.7377478
20
14.4169511
40
0.378122
50
55.9269121
51
78.4888449
0
ARC
8
DEFAULT_255_1_388
10
12.7598193
20
14.4550187
40
0.3342379
50
47.929771
51
55.4049217
0
ARC
8
DEFAULT_255_1_388
10
12.7712723
20
14.4666618
40
0.3179217
50
4.334829
51
48.0560205
0
ARC
8
DEFAULT_255_1_388
10
12.6480525
20
14.4475487
40
0.442341
50
359.9251713
51
5.5971671
0
ARC
8
DEFAULT_255_1_388
10
12.696268
20
14.4538728
40
0.3941854
50
337.8914027
51
358.9967534
0
ARC
8
DEFAULT_255_1_388
10
12.391025
20
14.5716295
40
0.7213271
50
326.9132501
51
338.3508308
0
ARC
8
DEFAULT_255_1_388
10
11.9426362
20
14.8590105
40
1.2538973
50
319.6471833
51
327.0959558
0
ARC
8
DEFAULT_255_1_388
10
11.511302
20
15.214805
40
1.8129975
50
317.2588228
51
319.9045804
0
ENDSEC
0
EOF