0
SECTION
2
HEADER
9
$MEASUREMENT
70
1
0
ENDSEC
0
SECTION
2
TABLES
0
TABLE
2
LTYPE
0
LTYPE
72
65
70
64
2
CONTINUOUS
3
______
73
0
40
0
0
ENDTAB
0
TABLE
2
LAYER
0
LAYER
2
DEFAULT_255_2_778
70
0
62
255
6
CONTINUOUS
0
LAYER
2
DEFAULT_255_1_234
70
0
62
255
6
CONTINUOUS
0
ENDTAB
0
ENDSEC
0
SECTION
2
ENTITIES
0
LINE
8
DEFAULT_255_2_778
10
7.4083335
20
10.4510499
11
17.9916335
21
10.4510499
0
LINE
8
DEFAULT_255_2_778
10
17.9916335
20
10.4510499
11
17.9916335
21
2.5135499
0
LINE
8
DEFAULT_255_2_778
10
17.9916335
20
2.5135499
11
7.4083335
21
2.5135499
0
LINE
8
DEFAULT_255_2_778
10
7.4083335
20
2.5135499
11
7.4083335
21
10.4510499
0
LINE
8
DEFAULT_255_2_778
10
12.6997
20
10.4510499
11
12.6997
21
2.5135499
0
LINE
8
DEFAULT_255_2_778
10
15.3456417
20
10.4509875
11
14.6841417
21
8.4665875
0
LINE
8
DEFAULT_255_2_778
10
14.6841417
20
8.4665875
11
16.0070417
21
8.4665875
0
LINE
8
DEFAULT_255_2_778
10
16.0070417
20
8.4665875
11
15.3456417
21
10.4509875
0
LINE
8
DEFAULT_255_2_778
10
10.0539
20
10.4510166
11
10.0539
21
7.8052166
0
LINE
8
DEFAULT_255_2_778
10
10.7153417
20
7.8052
11
9.3924417
21
7.8052
0
LINE
8
DEFAULT_255_2_778
10
10.0539
20
2.5135166
11
10.0539
21
5.1593166
0
LINE
8
DEFAULT_255_2_778
10
10.7153417
20
5.1593
11
9.3924417
21
5.1593
0
LINE
8
DEFAULT_255_2_778
10
15.3456
20
15.7427164
11
15.3456
21
-2.7780836
0
LINE
8
DEFAULT_255_2_778
10
7.4080834
20
4.3656
11
4.7622834
21
4.3656
0
LINE
8
DEFAULT_255_2_778
10
7.4080834
20
3.3073
11
4.7622834
21
3.3073
0
ARC
8
DEFAULT_255_2_778
10
4.7595332
20
3.8394135
40
1.3202532
50
148.7968675
51
180.1300552
0
ARC
8
DEFAULT_255_2_778
10
4.7586736
20
3.8398468
40
1.3192936
50
97.5665172
51
148.7936255
0
ARC
8
DEFAULT_255_2_778
10
4.761779
20
3.8131258
40
1.3461909
50
89.9827905
51
97.547783
0
ARC
8
DEFAULT_255_2_778
10
4.7651802
20
3.8390668
40
1.3202532
50
58.7968675
51
90.1300552
0
ARC
8
DEFAULT_255_2_778
10
4.7656136
20
3.8399264
40
1.3192936
50
7.5665172
51
58.7936255
0
ARC
8
DEFAULT_255_2_778
10
4.7388926
20
3.836821
40
1.3461909
50
359.9827905
51
7.547783
0
ARC
8
DEFAULT_255_2_778
10
4.7648335
20
3.8334198
40
1.3202532
50
328.7968675
51
0.1300552
0
ARC
8
DEFAULT_255_2_778
10
4.7656931
20
3.8329864
40
1.3192936
50
277.5665172
51
328.7936255
0
ARC
8
DEFAULT_255_2_778
10
4.7625877
20
3.8597074
40
1.3461909
50
269.9827905
51
277.547783
0
ARC
8
DEFAULT_255_2_778
10
4.7591865
20
3.8337665
40
1.3202532
50
238.7968675
51
270.1300552
0
ARC
8
DEFAULT_255_2_778
10
4.7587532
20
3.8329069
40
1.3192936
50
187.5665172
51
238.7936255
0
ARC
8
DEFAULT_255_2_778
10
4.7854742
20
3.8360123
40
1.3461909
50
179.9827905
51
187.547783
0
LINE
8
DEFAULT_255_2_778
10
3.4392834
20
3.8364166
11
3.4392834
21
3.8364166
0
ARC
8
DEFAULT_255_2_778
10
4.7607557
20
3.8378443
40
0.6600157
50
89.871003
51
180.128997
0
ARC
8
DEFAULT_255_2_778
10
4.763649
20
3.8378655
40
0.6599943
50
359.8691577
51
90.1221758
0
ARC
8
DEFAULT_255_2_778
10
4.7636705
20
3.8349295
40
0.6599728
50
269.8759594
51
0.1240406
0
ARC
8
DEFAULT_255_2_778
10
4.7607345
20
3.8349508
40
0.6599942
50
179.8778094
51
270.1308423
0
LINE
8
DEFAULT_255_2_778
10
4.1007417
20
3.8363583
11
4.1007417
21
3.8363583
0
LINE
8
DEFAULT_255_2_778
10
17.9914188
20
3.7835
11
18.2854188
21
5.6885
0
LINE
8
DEFAULT_255_2_778
10
18.2854188
20
5.6885
11
18.7264188
21
2.5135
0
LINE
8
DEFAULT_255_2_778
10
18.7264188
20
2.5135
11
19.1675188
21
5.6885
0
LINE
8
DEFAULT_255_2_778
10
19.1675188
20
5.6885
11
19.6085188
21
2.5135
0
LINE
8
DEFAULT_255_2_778
10
19.6085188
20
2.5135
11
20.0496188
21
5.6885
0
LINE
8
DEFAULT_255_2_778
10
20.0496188
20
5.6885
11
20.4907188
21
2.5135
0
LINE
8
DEFAULT_255_2_778
10
20.4907188
20
2.5135
11
20.6378188
21
3.7835
0
LINE
8
DEFAULT_255_1_234
10
12.8315137
20
-0.6674567
11
12.8315137
21
-1.8425
0
LINE
8
DEFAULT_255_1_234
10
12.8315137
20
-1.8425
11
12.6821234
21
-1.8425
0
LINE
8
DEFAULT_255_1_234
10
12.6821234
20
-1.8425
11
12.6821234
21
-0.8521867
0
LINE
8
DEFAULT_255_1_234
10
12.6821234
20
-0.8521867
11
12.3825396
21
-0.9622215
0
LINE
8
DEFAULT_255_1_234
10
12.3825396
20
-0.9622215
11
12.3825396
21
-0.8272883
0
LINE
8
DEFAULT_255_1_234
10
12.3825396
20
-0.8272883
11
12.8082217
21
-0.6674567
0
LINE
8
DEFAULT_255_1_234
10
12.8082217
20
-0.6674567
11
12.8315137
21
-0.6674567
0
LINE
8
DEFAULT_255_1_234
10
13.1011119
20
13.5753792
11
13.1011119
21
13.4541
0
LINE
8
DEFAULT_255_1_234
10
13.1011119
20
13.4541
11
12.334884
21
13.4541
0
LINE
8
DEFAULT_255_1_234
10
12.334884
20
13.4541
11
12.334884
21
13.5609221
0
LINE
8
DEFAULT_255_1_234
10
12.334884
20
13.5609221
11
12.7396836
21
14.0106995
0
LINE
8
DEFAULT_255_1_234
10
12.4609823
20
14.2789595
11
12.3123952
21
14.2789595
0
LINE
8
DEFAULT_255_1_234
10
12.8272296
20
13.9151218
11
12.5139918
21
13.5753792
0
LINE
8
DEFAULT_255_1_234
10
12.5139918
20
13.5753792
11
13.1011119
21
13.5753792
0
ARC
8
DEFAULT_255_1_234
10
11.390667
20
15.2036527
40
1.8008286
50
318.5132453
51
320.7828378
0
ARC
8
DEFAULT_255_1_234
10
11.9193644
20
14.7733426
40
1.1191493
50
320.7372736
51
323.9737074
0
ARC
8
DEFAULT_255_1_234
10
12.3113501
20
14.4893361
40
0.6350923
50
323.8961724
51
328.6421089
0
ARC
8
DEFAULT_255_1_234
10
12.5160096
20
14.3631031
40
0.3946393
50
328.8299013
51
331.789948
0
ARC
8
DEFAULT_255_1_234
10
12.6157274
20
14.3116509
40
0.2824501
50
331.4255242
51
352.9364833
0
ARC
8
DEFAULT_255_1_234
10
12.6293775
20
14.3085976
40
0.2685315
50
353.2248685
51
0.0169286
0
ARC
8
DEFAULT_255_1_234
10
12.6503652
20
14.310895
40
0.2475536
50
359.4866256
51
15.9339782
0
ARC
8
DEFAULT_255_1_234
10
12.7010637
20
14.3245286
40
0.1950618
50
16.1714718
51
43.5284424
0
ARC
8
DEFAULT_255_1_234
10
12.7087946
20
14.3322573
40
0.184134
50
43.4415429
51
83.1661404
0
ARC
8
DEFAULT_255_1_234
10
12.6953864
20
14.2585771
40
0.258926
50
82.160215
51
90.1505798
0
ARC
8
DEFAULT_255_1_234
10
12.6922291
20
14.2048865
40
0.3126255
50
89.5460705
51
102.5418777
0
ARC
8
DEFAULT_255_1_234
10
12.6679377
20
14.3079665
40
0.2067346
50
102.1739365
51
129.2061916
0
ARC
8
DEFAULT_255_1_234
10
12.6600449
20
14.3204094
40
0.1921118
50
129.7279328
51
135.7542026
0
ARC
8
DEFAULT_255_1_234
10
12.6721977
20
14.3107045
40
0.2075944
50
136.175737
51
166.3674722
0
ARC
8
DEFAULT_255_1_234
10
12.7728896
20
14.2837182
40
0.3118201
50
165.9092917
51
178.8683903
0
ARC
8
DEFAULT_255_1_234
10
12.8593757
20
14.2790179
40
0.3983935
50
178.438168
51
180.0083905
0
ARC
8
DEFAULT_255_1_234
10
12.7192359
20
14.2829231
40
0.4068601
50
163.2878735
51
180.5581814
0
ARC
8
DEFAULT_255_1_234
10
12.6390621
20
14.304984
40
0.3237344
50
133.454115
51
162.9470031
0
ARC
8
DEFAULT_255_1_234
10
12.6569162
20
14.286
40
0.349795
50
100.7869394
51
133.4384016
0
ARC
8
DEFAULT_255_1_234
10
12.6916934
20
14.1311319
40
0.5084616
50
89.6605301
51
101.3704185
0
ARC
8
DEFAULT_255_1_234
10
12.6983273
20
14.1372496
40
0.502348
50
78.2171172
51
90.4130393
0
ARC
8
DEFAULT_255_1_234
10
12.7338351
20
14.2996637
40
0.3361092
50
55.9268222
51
78.4888551
0
ARC
8
DEFAULT_255_1_234
10
12.7534791
20
14.3335324
40
0.2970617
50
47.9292255
51
55.4054003
0
ARC
8
DEFAULT_255_1_234
10
12.7636352
20
14.3438502
40
0.2825983
50
4.3347696
51
48.0560701
0
ARC
8
DEFAULT_255_1_234
10
12.6540745
20
14.3268601
40
0.393225
50
359.925209
51
5.5967654
0
ARC
8
DEFAULT_255_1_234
10
12.6969637
20
14.3324816
40
0.3503892
50
337.8914096
51
358.9967724
0
ARC
8
DEFAULT_255_1_234
10
12.4256049
20
14.4371706
40
0.6412172
50
326.9135351
51
338.3505194
0
ARC
8
DEFAULT_255_1_234
10
12.0270353
20
14.6926284
40
1.1146189
50
319.6472867
51
327.095818
0
ARC
8
DEFAULT_255_1_234
10
11.6437356
20
15.0088
40
1.6114559
50
317.2586784
51
319.9046139
0
ENDSEC
0
EOF