0
SECTION
2
HEADER
9
$MEASUREMENT
70
1
0
ENDSEC
0
SECTION
2
TABLES
0
TABLE
2
LTYPE
0
LTYPE
72
65
70
64
2
CONTINUOUS
3
______
73
0
40
0
0
ENDTAB
0
TABLE
2
LAYER
0
LAYER
2
DEFAULT_255_2_778
70
0
62
255
6
CONTINUOUS
0
LAYER
2
DEFAULT_255_1_388
70
0
62
255
6
CONTINUOUS
0
ENDTAB
0
ENDSEC
0
SECTION
2
ENTITIES
0
LINE
8
DEFAULT_255_2_778
10
7.4083002
20
10.4510499
11
23.2833002
21
10.4510499
0
LINE
8
DEFAULT_255_2_778
10
23.2833002
20
10.4510499
11
23.2833002
21
2.5135499
0
LINE
8
DEFAULT_255_2_778
10
23.2833002
20
2.5135499
11
7.4083002
21
2.5135499
0
LINE
8
DEFAULT_255_2_778
10
7.4083002
20
2.5135499
11
7.4083002
21
10.4510499
0
LINE
8
DEFAULT_255_2_778
10
20.6374875
20
2.5267
11
20.6374875
21
4.4317
0
LINE
8
DEFAULT_255_2_778
10
20.6374875
20
4.4317
11
19.4468875
21
4.0481
0
LINE
8
DEFAULT_255_2_778
10
19.4468875
20
4.0481
11
20.6374875
21
2.5267
0
LINE
8
DEFAULT_255_2_778
10
15.3458
20
10.4510499
11
15.3458
21
2.5135499
0
LINE
8
DEFAULT_255_2_778
10
10.0542417
20
2.5135499
11
10.0542417
21
10.4510499
0
LINE
8
DEFAULT_255_2_778
10
10.0542417
20
10.4510499
11
9.3927417
21
8.4666499
0
LINE
8
DEFAULT_255_2_778
10
9.3927417
20
8.4666499
11
10.7156417
21
8.4666499
0
LINE
8
DEFAULT_255_2_778
10
10.7156417
20
8.4666499
11
10.0542417
21
10.4510499
0
LINE
8
DEFAULT_255_2_778
10
17.9917
20
-2.7781667
11
17.9917
21
2.5135333
0
LINE
8
DEFAULT_255_2_778
10
17.9916834
20
15.7426831
11
17.9916834
21
10.4509831
0
LINE
8
DEFAULT_255_2_778
10
17.9916834
20
10.4509831
11
20.6374834
21
2.5134831
0
LINE
8
DEFAULT_255_2_778
10
20.6375
20
-2.7781667
11
20.6375
21
2.5135333
0
LINE
8
DEFAULT_255_2_778
10
17.9916834
20
2.5135499
11
20.6374834
21
10.4510499
0
LINE
8
DEFAULT_255_2_778
10
20.6374834
20
10.4510499
11
20.6374834
21
8.3343499
0
LINE
8
DEFAULT_255_2_778
10
20.6374834
20
8.3343499
11
19.4468834
21
8.8635499
0
LINE
8
DEFAULT_255_2_778
10
19.4468834
20
8.8635499
11
20.6374834
21
10.4510499
0
LINE
8
DEFAULT_255_2_778
10
20.6375
20
15.7426333
11
20.6375
21
10.4509333
0
LINE
8
DEFAULT_255_2_778
10
12.7
20
2.5135499
11
12.7
21
10.4510499
0
LINE
8
DEFAULT_255_2_778
10
12.0385417
20
4.4978875
11
13.3614417
21
4.4978875
0
LINE
8
DEFAULT_255_2_778
10
13.3614417
20
4.4978875
11
12.7000417
21
2.5134875
0
LINE
8
DEFAULT_255_2_778
10
12.7000417
20
2.5134875
11
12.0385417
21
4.4978875
0
LINE
8
DEFAULT_255_2_778
10
7.4082834
20
4.3656
11
4.7624834
21
4.3656
0
LINE
8
DEFAULT_255_2_778
10
7.4082834
20
3.3073
11
4.7624834
21
3.3073
0
ARC
8
DEFAULT_255_2_778
10
4.7598332
20
3.8394135
40
1.3202532
50
148.7968675
51
180.1300552
0
ARC
8
DEFAULT_255_2_778
10
4.7589736
20
3.8398468
40
1.3192936
50
97.5665172
51
148.7936255
0
ARC
8
DEFAULT_255_2_778
10
4.762079
20
3.8131258
40
1.3461909
50
89.9827905
51
97.547783
0
ARC
8
DEFAULT_255_2_778
10
4.7654802
20
3.8390668
40
1.3202532
50
58.7968675
51
90.1300552
0
ARC
8
DEFAULT_255_2_778
10
4.7659136
20
3.8399264
40
1.3192936
50
7.5665172
51
58.7936255
0
ARC
8
DEFAULT_255_2_778
10
4.7391926
20
3.836821
40
1.3461909
50
359.9827905
51
7.547783
0
ARC
8
DEFAULT_255_2_778
10
4.7651335
20
3.8334198
40
1.3202532
50
328.7968675
51
0.1300552
0
ARC
8
DEFAULT_255_2_778
10
4.7659931
20
3.8329864
40
1.3192936
50
277.5665172
51
328.7936255
0
ARC
8
DEFAULT_255_2_778
10
4.7628877
20
3.8597074
40
1.3461909
50
269.9827905
51
277.547783
0
ARC
8
DEFAULT_255_2_778
10
4.7594865
20
3.8337665
40
1.3202532
50
238.7968675
51
270.1300552
0
ARC
8
DEFAULT_255_2_778
10
4.7590532
20
3.8329069
40
1.3192936
50
187.5665172
51
238.7936255
0
ARC
8
DEFAULT_255_2_778
10
4.7857742
20
3.8360123
40
1.3461909
50
179.9827905
51
187.547783
0
LINE
8
DEFAULT_255_2_778
10
3.4395834
20
3.8364166
11
3.4395834
21
3.8364166
0
LINE
8
DEFAULT_255_2_778
10
4.7625
20
2.5135166
11
4.7625
21
5.1593166
0
LINE
8
DEFAULT_255_1_388
10
15.5037985
20
-0.5089852
11
15.5037985
21
-1.8309
0
LINE
8
DEFAULT_255_1_388
10
15.5037985
20
-1.8309
11
15.3357355
21
-1.8309
0
LINE
8
DEFAULT_255_1_388
10
15.3357355
20
-1.8309
11
15.3357355
21
-0.716805
0
LINE
8
DEFAULT_255_1_388
10
15.3357355
20
-0.716805
11
14.998706
21
-0.8405934
0
LINE
8
DEFAULT_255_1_388
10
14.998706
20
-0.8405934
11
14.998706
21
-0.6887945
0
LINE
8
DEFAULT_255_1_388
10
14.998706
20
-0.6887945
11
15.4775951
21
-0.5089852
0
LINE
8
DEFAULT_255_1_388
10
15.4775951
20
-0.5089852
11
15.5037985
21
-0.5089852
0
LINE
8
DEFAULT_255_1_388
10
16.2365893
20
-1.2282225
11
16.2365893
21
-1.0917843
0
LINE
8
DEFAULT_255_1_388
10
16.2365893
20
-1.0917843
11
16.3621847
21
-1.0917843
0
LINE
8
DEFAULT_255_1_388
10
16.1480399
20
-0.8604718
11
15.9808805
21
-0.8604718
0
LINE
8
DEFAULT_255_1_388
10
15.9691342
20
-1.4839312
11
16.1371972
21
-1.4839312
0
LINE
8
DEFAULT_255_1_388
10
16.3621847
20
-1.2282225
11
16.2365893
21
-1.2282225
0
ARC
8
DEFAULT_255_1_388
10
16.3589074
20
-0.7101078
40
0.3816905
50
270.491971
51
281.8953028
0
ARC
8
DEFAULT_255_1_388
10
16.3860501
20
-0.8340801
40
0.2547877
50
281.6690378
51
301.2943765
0
ARC
8
DEFAULT_255_1_388
10
16.4051952
20
-0.8691074
40
0.2149197
50
301.7834992
51
311.754567
0
ARC
8
DEFAULT_255_1_388
10
16.4154993
20
-0.880535
40
0.1995326
50
311.7325027
51
354.2803031
0
ARC
8
DEFAULT_255_1_388
10
16.3337409
20
-0.866472
40
0.2823461
50
353.0941646
51
0.1174696
0
ARC
8
DEFAULT_255_1_388
10
16.2818967
20
-0.8611126
40
0.3342238
50
359.1804452
51
15.0452323
0
ARC
8
DEFAULT_255_1_388
10
16.4333026
20
-0.8169454
40
0.1765747
50
13.957816
51
77.6713812
0
ARC
8
DEFAULT_255_1_388
10
16.3898261
20
-0.9727536
40
0.3381982
50
76.111571
51
90.7028736
0
ARC
8
DEFAULT_255_1_388
10
16.3831673
20
-0.941975
40
0.3074046
50
89.5321574
51
103.5319393
0
ARC
8
DEFAULT_255_1_388
10
16.3606057
20
-0.8520557
40
0.2147041
50
103.2930114
51
133.5619756
0
ARC
8
DEFAULT_255_1_388
10
16.3555999
20
-0.8453649
40
0.2064084
50
133.8349761
51
173.5343225
0
ARC
8
DEFAULT_255_1_388
10
16.4369656
20
-0.8597856
40
0.2889266
50
172.5097183
51
180.1360699
0
ARC
8
DEFAULT_255_1_388
10
16.329942
20
-0.855912
40
0.3490913
50
155.3483706
51
180.7484035
0
ARC
8
DEFAULT_255_1_388
10
16.3244396
20
-0.8591481
40
0.3454798
50
131.5745177
51
154.4799474
0
ARC
8
DEFAULT_255_1_388
10
16.3596678
20
-0.8947578
40
0.3955058
50
96.9874487
51
131.9690874
0
ARC
8
DEFAULT_255_1_388
10
16.3843571
20
-1.0348593
40
0.537622
50
89.8592909
51
97.7827481
0
ARC
8
DEFAULT_255_1_388
10
16.389768
20
-1.064364
40
0.5671399
50
78.3654493
51
90.4132586
0
ARC
8
DEFAULT_255_1_388
10
16.4300321
20
-0.8777082
40
0.3762034
50
56.6229818
51
78.6387103
0
ARC
8
DEFAULT_255_1_388
10
16.454215
20
-0.8354154
40
0.3275964
50
47.0254604
51
56.085558
0
ARC
8
DEFAULT_255_1_388
10
16.4564401
20
-0.8309811
40
0.3228382
50
10.9207523
51
46.777927
0
ARC
8
DEFAULT_255_1_388
10
16.3029995
20
-0.8664599
40
0.4802559
50
359.6364235
51
11.6087615
0
ARC
8
DEFAULT_255_1_388
10
16.5094161
20
-0.8681596
40
0.273833
50
332.3549969
51
359.7179765
0
ARC
8
DEFAULT_255_1_388
10
16.4362562
20
-0.8334715
40
0.3547505
50
325.2332381
51
332.8746682
0
ARC
8
DEFAULT_255_1_388
10
16.4534144
20
-0.8454237
40
0.3338396
50
292.9803892
51
325.2391113
0
ARC
8
DEFAULT_255_1_388
10
16.422334
20
-0.7849321
40
0.4016959
50
292.542178
51
293.6931461
0
ARC
8
DEFAULT_255_1_388
10
16.4666912
20
-1.5114964
40
0.372079
50
57.643292
51
72.8626085
0
ARC
8
DEFAULT_255_1_388
10
16.5065747
20
-1.4468727
40
0.2961455
50
36.7246661
51
57.4701329
0
ARC
8
DEFAULT_255_1_388
10
16.5052903
20
-1.445453
40
0.2963321
50
8.054535
51
36.3561529
0
ARC
8
DEFAULT_255_1_388
10
16.4082576
20
-1.4628927
40
0.3948682
50
359.8316595
51
8.5873361
0
ARC
8
DEFAULT_255_1_388
10
16.366005
20
-1.468303
40
0.4371398
50
343.9831631
51
0.557075
0
ARC
8
DEFAULT_255_1_388
10
16.46571
20
-1.4956037
40
0.3337749
50
311.6358204
51
343.7652116
0
ARC
8
DEFAULT_255_1_388
10
16.4231353
20
-1.4476045
40
0.3979351
50
279.7829743
51
311.625622
0
ARC
8
DEFAULT_255_1_388
10
16.3892489
20
-1.2859358
40
0.5630417
50
269.7285092
51
280.3857694
0
ARC
8
DEFAULT_255_1_388
10
16.3822802
20
-1.2905759
40
0.5584119
50
256.6827433
51
270.4412869
0
ARC
8
DEFAULT_255_1_388
10
16.3441788
20
-1.4463302
40
0.3980715
50
229.4223821
51
256.8554507
0
ARC
8
DEFAULT_255_1_388
10
16.2975342
20
-1.4988317
40
0.3278564
50
181.8183354
51
229.6455015
0
ARC
8
DEFAULT_255_1_388
10
16.4144951
20
-1.4841175
40
0.4453611
50
179.9760419
51
183.2330638
0
ARC
8
DEFAULT_255_1_388
10
16.3951503
20
-1.4864219
40
0.2579652
50
179.4467996
51
196.2871626
0
ARC
8
DEFAULT_255_1_388
10
16.3402957
20
-1.5014291
40
0.2011057
50
196.5661293
51
227.7059371
0
ARC
8
DEFAULT_255_1_388
10
16.3587564
20
-1.4807845
40
0.2287994
50
227.7653015
51
257.8763321
0
ARC
8
DEFAULT_255_1_388
10
16.3840647
20
-1.3747039
40
0.3378385
50
257.4583525
51
270.4267406
0
ARC
8
DEFAULT_255_1_388
10
16.3891897
20
-1.342077
40
0.3704652
50
269.5965319
51
280.8788143
0
ARC
8
DEFAULT_255_1_388
10
16.4150125
20
-1.4710471
40
0.2389415
50
280.6347277
51
299.8594068
0
ARC
8
DEFAULT_255_1_388
10
16.4364895
20
-1.5118264
40
0.19289
50
300.3575552
51
314.5515667
0
ARC
8
DEFAULT_255_1_388
10
16.427157
20
-1.5049975
40
0.204312
50
315.0730962
51
345.0429362
0
ARC
8
DEFAULT_255_1_388
10
16.3233078
20
-1.4747461
40
0.31246
50
344.598526
51
357.9270698
0
ARC
8
DEFAULT_255_1_388
10
16.2223383
20
-1.4678295
40
0.4136265
50
357.4755098
51
0.0224936
0
ARC
8
DEFAULT_255_1_388
10
16.337626
20
-1.4650901
40
0.2983498
50
359.5051035
51
13.4236939
0
ARC
8
DEFAULT_255_1_388
10
16.435135
20
-1.4401363
40
0.1977186
50
12.9497905
51
48.7550905
0
ARC
8
DEFAULT_255_1_388
10
16.4146272
20
-1.4681627
40
0.2323321
50
49.509109
51
72.1832965
0
ARC
8
DEFAULT_255_1_388
10
16.374374
20
-1.5876368
40
0.358397
50
71.9008458
51
84.3555134
0
ARC
8
DEFAULT_255_1_388
10
16.3562135
20
-1.7408288
40
0.512641
50
84.019632
51
89.3326067
0
LINE
8
DEFAULT_255_1_388
10
16.0727318
20
14.1815382
11
16.0727318
21
14.0451
0
LINE
8
DEFAULT_255_1_388
10
16.0727318
20
14.0451
11
15.2107313
21
14.0451
0
LINE
8
DEFAULT_255_1_388
10
15.2107313
20
14.0451
11
15.2107313
21
14.1652741
0
LINE
8
DEFAULT_255_1_388
10
15.2107313
20
14.1652741
11
15.6661278
21
14.6712702
0
LINE
8
DEFAULT_255_1_388
10
15.3525909
20
14.9730607
11
15.1854315
21
14.9730607
0
LINE
8
DEFAULT_255_1_388
10
15.7646163
20
14.563746
11
15.4122262
21
14.1815382
0
LINE
8
DEFAULT_255_1_388
10
15.4122262
20
14.1815382
11
16.0727318
21
14.1815382
0
ARC
8
DEFAULT_255_1_388
10
14.1485337
20
16.0132983
40
2.0258655
50
318.5132526
51
320.7829045
0
ARC
8
DEFAULT_255_1_388
10
14.7433294
20
15.5291929
40
1.2589638
50
320.7372878
51
323.9739031
0
ARC
8
DEFAULT_255_1_388
10
15.1842226
20
15.2097554
40
0.7145141
50
323.8962701
51
328.64194
0
ARC
8
DEFAULT_255_1_388
10
15.4144484
20
15.0677545
40
0.4440242
50
328.8294576
51
331.7891185
0
ARC
8
DEFAULT_255_1_388
10
15.5266804
20
15.0098374
40
0.3177517
50
331.4254512
51
352.9365785
0
ARC
8
DEFAULT_255_1_388
10
15.5419804
20
15.006405
40
0.3021496
50
353.2257659
51
0.0166158
0
ARC
8
DEFAULT_255_1_388
10
15.5656564
20
15.0089894
40
0.2784847
50
359.486299
51
15.9343185
0
ARC
8
DEFAULT_255_1_388
10
15.6226831
20
15.0243269
40
0.2194403
50
16.1712913
51
43.5286088
0
ARC
8
DEFAULT_255_1_388
10
15.6313776
20
15.0330191
40
0.2071504
50
43.4417391
51
83.1661095
0
ARC
8
DEFAULT_255_1_388
10
15.6162937
20
14.9501316
40
0.2912888
50
82.160179
51
90.1505708
0
ARC
8
DEFAULT_255_1_388
10
15.6127418
20
14.8897279
40
0.3517025
50
89.5460741
51
102.5418361
0
ARC
8
DEFAULT_255_1_388
10
15.5854138
20
15.0056933
40
0.2325748
50
102.1738499
51
129.206123
0
ARC
8
DEFAULT_255_1_388
10
15.5765592
20
15.0196664
40
0.2161591
50
129.72865
51
135.753947
0
ARC
8
DEFAULT_255_1_388
10
15.5902074
20
15.0087728
40
0.2335433
50
136.1757367
51
166.3673339
0
ARC
8
DEFAULT_255_1_388
10
15.7034762
20
14.9784148
40
0.3507873
50
165.9090694
51
178.8684636
0
ARC
8
DEFAULT_255_1_388
10
15.8010534
20
14.9731263
40
0.4484624
50
178.4391136
51
180.0083808
0
ARC
8
DEFAULT_255_1_388
10
15.6431235
20
14.9775197
40
0.4577138
50
163.2878482
51
180.5581842
0
ARC
8
DEFAULT_255_1_388
10
15.5529276
20
15.0023393
40
0.3641968
50
133.4540601
51
162.947111
0
ARC
8
DEFAULT_255_1_388
10
15.5730158
20
14.9809789
40
0.3935189
50
100.7869829
51
133.4382499
0
ARC
8
DEFAULT_255_1_388
10
15.6121403
20
14.8067399
40
0.5720313
50
89.660664
51
101.3702276
0
ARC
8
DEFAULT_255_1_388
10
15.6196012
20
14.8136263
40
0.5651495
50
78.2172678
51
90.412935
0
ARC
8
DEFAULT_255_1_388
10
15.6595478
20
14.9963511
40
0.378122
50
55.9269121
51
78.4888449
0
ARC
8
DEFAULT_255_1_388
10
15.6816193
20
15.0344187
40
0.3342379
50
47.929771
51
55.4049217
0
ARC
8
DEFAULT_255_1_388
10
15.6930723
20
15.0460618
40
0.3179217
50
4.334829
51
48.0560205
0
ARC
8
DEFAULT_255_1_388
10
15.5698525
20
15.0269487
40
0.442341
50
359.9251713
51
5.5971671
0
ARC
8
DEFAULT_255_1_388
10
15.618068
20
15.0332728
40
0.3941854
50
337.8914027
51
358.9967534
0
ARC
8
DEFAULT_255_1_388
10
15.312825
20
15.1510295
40
0.7213271
50
326.9132501
51
338.3508308
0
ARC
8
DEFAULT_255_1_388
10
14.8644362
20
15.4384105
40
1.2538973
50
319.6471833
51
327.0959558
0
ARC
8
DEFAULT_255_1_388
10
14.433102
20
15.794205
40
1.8129975
50
317.2588228
51
319.9045804
0
LINE
8
DEFAULT_255_1_388
10
16.9555143
20
15.3606898
11
16.9555143
21
14.486943
0
LINE
8
DEFAULT_255_1_388
10
16.9555143
20
14.486943
11
17.1380343
21
14.486943
0
LINE
8
DEFAULT_255_1_388
10
17.1380343
20
14.486943
11
17.1380343
21
14.3505048
0
LINE
8
DEFAULT_255_1_388
10
17.1380343
20
14.3505048
11
16.9555143
21
14.3505048
0
LINE
8
DEFAULT_255_1_388
10
16.9555143
20
14.3505048
11
16.9555143
21
14.0451
0
LINE
8
DEFAULT_255_1_388
10
16.9555143
20
14.0451
11
16.7874513
21
14.0451
0
LINE
8
DEFAULT_255_1_388
10
16.7874513
20
14.0451
11
16.7874513
21
14.3505048
0
LINE
8
DEFAULT_255_1_388
10
16.7874513
20
14.3505048
11
16.188388
21
14.3505048
0
LINE
8
DEFAULT_255_1_388
10
16.188388
20
14.3505048
11
16.188388
21
14.4489933
0
LINE
8
DEFAULT_255_1_388
10
16.188388
20
14.4489933
11
16.7775121
21
15.3606898
0
LINE
8
DEFAULT_255_1_388
10
16.7775121
20
15.3606898
11
16.9555143
21
15.3606898
0
LINE
8
DEFAULT_255_1_388
10
16.7675729
20
15.0959455
11
16.3781366
21
14.486943
0
LINE
8
DEFAULT_255_1_388
10
16.3781366
20
14.486943
11
16.7874513
21
14.486943
0
LINE
8
DEFAULT_255_1_388
10
16.7874513
20
14.486943
11
16.7874513
21
15.132088
0
LINE
8
DEFAULT_255_1_388
10
16.7874513
20
15.132088
11
16.7675729
21
15.0959455
0
ENDSEC
0
EOF