0
SECTION
2
HEADER
9
$MEASUREMENT
70
1
0
ENDSEC
0
SECTION
2
TABLES
0
TABLE
2
LTYPE
0
LTYPE
72
65
70
64
2
CONTINUOUS
3
______
73
0
40
0
0
ENDTAB
0
TABLE
2
LAYER
0
LAYER
2
DEFAULT_255_2_778
70
0
62
255
6
CONTINUOUS
0
LAYER
2
DEFAULT_255_1_234
70
0
62
255
6
CONTINUOUS
0
ENDTAB
0
ENDSEC
0
SECTION
2
ENTITIES
0
LINE
8
DEFAULT_255_2_778
10
3.5631002
20
2.5135333
11
19.4381002
21
2.5135333
0
LINE
8
DEFAULT_255_2_778
10
19.4381002
20
2.5135333
11
19.4381002
21
-2.7781667
0
LINE
8
DEFAULT_255_2_778
10
19.4381002
20
-2.7781667
11
3.5631002
21
-2.7781667
0
LINE
8
DEFAULT_255_2_778
10
3.5631002
20
-2.7781667
11
3.5631002
21
2.5135333
0
LINE
8
DEFAULT_255_2_778
10
9.3838835
20
0.3968667
11
24.7296835
21
0.3968667
0
LINE
8
DEFAULT_255_2_778
10
24.7296835
20
0.3968667
11
24.7296835
21
-0.6614333
0
LINE
8
DEFAULT_255_2_778
10
24.7296835
20
-0.6614333
11
9.3838835
21
-0.6614333
0
LINE
8
DEFAULT_255_2_778
10
9.3838835
20
-0.6614333
11
9.3838835
21
0.3968667
0
LINE
8
DEFAULT_255_2_778
10
7.5318417
20
2.5135333
11
8.8547417
21
2.5135333
0
LINE
8
DEFAULT_255_2_778
10
8.8547417
20
2.5135333
11
8.8547417
21
-2.7781667
0
LINE
8
DEFAULT_255_2_778
10
8.8547417
20
-2.7781667
11
7.5318417
21
-2.7781667
0
LINE
8
DEFAULT_255_2_778
10
7.5318417
20
-2.7781667
11
7.5318417
21
2.5135333
0
LINE
8
DEFAULT_255_2_778
10
8.8547167
20
0.9260333
11
9.3839167
21
0.9260333
0
LINE
8
DEFAULT_255_2_778
10
9.3839167
20
0.9260333
11
9.3839167
21
-1.1906667
0
LINE
8
DEFAULT_255_2_778
10
9.3839167
20
-1.1906667
11
8.8547167
21
-1.1906667
0
LINE
8
DEFAULT_255_2_778
10
8.8547167
20
-1.1906667
11
8.8547167
21
0.9260333
0
LINE
8
DEFAULT_255_2_778
10
6.2089
20
7.8051333
11
6.2089
21
2.5134333
0
LINE
8
DEFAULT_255_2_778
10
16.7923
20
7.8051333
11
16.7923
21
2.5134333
0
LINE
8
DEFAULT_255_2_778
10
6.2089383
20
-2.1166515
11
10.1776383
21
1.8520485
0
LINE
8
DEFAULT_255_2_778
10
10.1776383
20
1.8520485
11
8.3067383
21
0.9166485
0
LINE
8
DEFAULT_255_2_778
10
8.3067383
20
0.9166485
11
9.2422383
21
-0.0188515
0
LINE
8
DEFAULT_255_2_778
10
9.2422383
20
-0.0188515
11
10.1776383
21
1.8520485
0
LINE
8
DEFAULT_255_1_234
10
3.7635137
20
6.6911433
11
3.7635137
21
5.5161
0
LINE
8
DEFAULT_255_1_234
10
3.7635137
20
5.5161
11
3.6141234
21
5.5161
0
LINE
8
DEFAULT_255_1_234
10
3.6141234
20
5.5161
11
3.6141234
21
6.5064133
0
LINE
8
DEFAULT_255_1_234
10
3.6141234
20
6.5064133
11
3.3145396
21
6.3963785
0
LINE
8
DEFAULT_255_1_234
10
3.3145396
20
6.3963785
11
3.3145396
21
6.5313117
0
LINE
8
DEFAULT_255_1_234
10
3.3145396
20
6.5313117
11
3.7402217
21
6.6911433
0
LINE
8
DEFAULT_255_1_234
10
3.7402217
20
6.6911433
11
3.7635137
21
6.6911433
0
LINE
8
DEFAULT_255_1_234
10
4.9650618
20
5.6373792
11
4.9650618
21
5.5161
0
LINE
8
DEFAULT_255_1_234
10
4.9650618
20
5.5161
11
4.1988339
21
5.5161
0
LINE
8
DEFAULT_255_1_234
10
4.1988339
20
5.5161
11
4.1988339
21
5.6229221
0
LINE
8
DEFAULT_255_1_234
10
4.1988339
20
5.6229221
11
4.6036335
21
6.0726995
0
LINE
8
DEFAULT_255_1_234
10
4.3249322
20
6.3409595
11
4.1763451
21
6.3409595
0
LINE
8
DEFAULT_255_1_234
10
4.6911795
20
5.9771218
11
4.3779417
21
5.6373792
0
LINE
8
DEFAULT_255_1_234
10
4.3779417
20
5.6373792
11
4.9650618
21
5.6373792
0
ARC
8
DEFAULT_255_1_234
10
3.2546169
20
7.2656527
40
1.8008286
50
318.5132453
51
320.7828378
0
ARC
8
DEFAULT_255_1_234
10
3.7833143
20
6.8353426
40
1.1191493
50
320.7372736
51
323.9737074
0
ARC
8
DEFAULT_255_1_234
10
4.1753
20
6.5513361
40
0.6350923
50
323.8961724
51
328.6421089
0
ARC
8
DEFAULT_255_1_234
10
4.3799595
20
6.4251031
40
0.3946393
50
328.8299013
51
331.789948
0
ARC
8
DEFAULT_255_1_234
10
4.4796774
20
6.3736509
40
0.2824501
50
331.4255242
51
352.9364833
0
ARC
8
DEFAULT_255_1_234
10
4.4933274
20
6.3705976
40
0.2685315
50
353.2248685
51
0.0169286
0
ARC
8
DEFAULT_255_1_234
10
4.5143151
20
6.372895
40
0.2475536
50
359.4866256
51
15.9339782
0
ARC
8
DEFAULT_255_1_234
10
4.5650136
20
6.3865286
40
0.1950618
50
16.1714718
51
43.5284424
0
ARC
8
DEFAULT_255_1_234
10
4.5727445
20
6.3942573
40
0.184134
50
43.4415429
51
83.1661404
0
ARC
8
DEFAULT_255_1_234
10
4.5593363
20
6.3205771
40
0.258926
50
82.160215
51
90.1505798
0
ARC
8
DEFAULT_255_1_234
10
4.556179
20
6.2668865
40
0.3126255
50
89.5460705
51
102.5418777
0
ARC
8
DEFAULT_255_1_234
10
4.5318876
20
6.3699665
40
0.2067346
50
102.1739365
51
129.2061916
0
ARC
8
DEFAULT_255_1_234
10
4.5239948
20
6.3824094
40
0.1921118
50
129.7279328
51
135.7542026
0
ARC
8
DEFAULT_255_1_234
10
4.5361476
20
6.3727045
40
0.2075944
50
136.175737
51
166.3674722
0
ARC
8
DEFAULT_255_1_234
10
4.6368395
20
6.3457182
40
0.3118201
50
165.9092917
51
178.8683903
0
ARC
8
DEFAULT_255_1_234
10
4.7233256
20
6.3410179
40
0.3983935
50
178.438168
51
180.0083905
0
ARC
8
DEFAULT_255_1_234
10
4.5831859
20
6.3449231
40
0.4068601
50
163.2878735
51
180.5581814
0
ARC
8
DEFAULT_255_1_234
10
4.503012
20
6.366984
40
0.3237344
50
133.454115
51
162.9470031
0
ARC
8
DEFAULT_255_1_234
10
4.5208661
20
6.348
40
0.349795
50
100.7869394
51
133.4384016
0
ARC
8
DEFAULT_255_1_234
10
4.5556433
20
6.1931319
40
0.5084616
50
89.6605301
51
101.3704185
0
ARC
8
DEFAULT_255_1_234
10
4.5622772
20
6.1992496
40
0.502348
50
78.2171172
51
90.4130393
0
ARC
8
DEFAULT_255_1_234
10
4.597785
20
6.3616637
40
0.3361092
50
55.9268222
51
78.4888551
0
ARC
8
DEFAULT_255_1_234
10
4.617429
20
6.3955324
40
0.2970617
50
47.9292255
51
55.4054003
0
ARC
8
DEFAULT_255_1_234
10
4.6275851
20
6.4058502
40
0.2825983
50
4.3347696
51
48.0560701
0
ARC
8
DEFAULT_255_1_234
10
4.5180244
20
6.3888601
40
0.393225
50
359.925209
51
5.5967654
0
ARC
8
DEFAULT_255_1_234
10
4.5609136
20
6.3944816
40
0.3503892
50
337.8914096
51
358.9967724
0
ARC
8
DEFAULT_255_1_234
10
4.2895548
20
6.4991706
40
0.6412172
50
326.9135351
51
338.3505194
0
ARC
8
DEFAULT_255_1_234
10
3.8909852
20
6.7546284
40
1.1146189
50
319.6472867
51
327.095818
0
ARC
8
DEFAULT_255_1_234
10
3.5076855
20
7.0708
40
1.6114559
50
317.2586784
51
319.9046139
0
ENDSEC
0
EOF