0
SECTION
2
HEADER
9
$MEASUREMENT
70
1
0
ENDSEC
0
SECTION
2
TABLES
0
TABLE
2
LTYPE
0
LTYPE
72
65
70
64
2
CONTINUOUS
3
______
73
0
40
0
0
ENDTAB
0
TABLE
2
LAYER
0
LAYER
2
DEFAULT_255_2_778
70
0
62
255
6
CONTINUOUS
0
LAYER
2
DEFAULT_255_1_234
70
0
62
255
6
CONTINUOUS
0
ENDTAB
0
ENDSEC
0
SECTION
2
ENTITIES
0
LINE
8
DEFAULT_255_2_778
10
8.0698002
20
2.5135333
11
23.9448002
21
2.5135333
0
LINE
8
DEFAULT_255_2_778
10
23.9448002
20
2.5135333
11
23.9448002
21
-2.7781667
0
LINE
8
DEFAULT_255_2_778
10
23.9448002
20
-2.7781667
11
8.0698002
21
-2.7781667
0
LINE
8
DEFAULT_255_2_778
10
8.0698002
20
-2.7781667
11
8.0698002
21
2.5135333
0
LINE
8
DEFAULT_255_2_778
10
13.8905835
20
0.3968667
11
29.2363835
21
0.3968667
0
LINE
8
DEFAULT_255_2_778
10
29.2363835
20
0.3968667
11
29.2363835
21
-0.6614333
0
LINE
8
DEFAULT_255_2_778
10
29.2363835
20
-0.6614333
11
13.8905835
21
-0.6614333
0
LINE
8
DEFAULT_255_2_778
10
13.8905835
20
-0.6614333
11
13.8905835
21
0.3968667
0
LINE
8
DEFAULT_255_2_778
10
12.0385417
20
2.5135333
11
13.3614417
21
2.5135333
0
LINE
8
DEFAULT_255_2_778
10
13.3614417
20
2.5135333
11
13.3614417
21
-2.7781667
0
LINE
8
DEFAULT_255_2_778
10
13.3614417
20
-2.7781667
11
12.0385417
21
-2.7781667
0
LINE
8
DEFAULT_255_2_778
10
12.0385417
20
-2.7781667
11
12.0385417
21
2.5135333
0
LINE
8
DEFAULT_255_2_778
10
11.5094167
20
0.9260333
11
12.0386167
21
0.9260333
0
LINE
8
DEFAULT_255_2_778
10
12.0386167
20
0.9260333
11
12.0386167
21
-1.1906667
0
LINE
8
DEFAULT_255_2_778
10
12.0386167
20
-1.1906667
11
11.5094167
21
-1.1906667
0
LINE
8
DEFAULT_255_2_778
10
11.5094167
20
-1.1906667
11
11.5094167
21
0.9260333
0
LINE
8
DEFAULT_255_2_778
10
10.7156
20
7.8051333
11
10.7156
21
2.5134333
0
LINE
8
DEFAULT_255_2_778
10
21.299
20
7.8051333
11
21.299
21
2.5134333
0
LINE
8
DEFAULT_255_2_778
10
10.7156515
20
-2.1166515
11
14.6843515
21
1.8520485
0
LINE
8
DEFAULT_255_2_778
10
14.6843515
20
1.8520485
11
12.8134515
21
0.9166485
0
LINE
8
DEFAULT_255_2_778
10
12.8134515
20
0.9166485
11
13.7489515
21
-0.0188515
0
LINE
8
DEFAULT_255_2_778
10
13.7489515
20
-0.0188515
11
14.6843515
21
1.8520485
0
LINE
8
DEFAULT_255_2_778
10
13.3614167
20
0.9260333
11
13.8906167
21
0.9260333
0
LINE
8
DEFAULT_255_2_778
10
13.8906167
20
0.9260333
11
13.8906167
21
-1.1906667
0
LINE
8
DEFAULT_255_2_778
10
13.8906167
20
-1.1906667
11
13.3614167
21
-1.1906667
0
LINE
8
DEFAULT_255_2_778
10
13.3614167
20
-1.1906667
11
13.3614167
21
0.9260333
0
LINE
8
DEFAULT_255_2_778
10
2.7780751
20
0.3968667
11
11.5092751
21
0.3968667
0
LINE
8
DEFAULT_255_2_778
10
11.5092751
20
0.3968667
11
11.5092751
21
-0.6614333
0
LINE
8
DEFAULT_255_2_778
10
11.5092751
20
-0.6614333
11
2.7780751
21
-0.6614333
0
LINE
8
DEFAULT_255_2_778
10
2.7780751
20
-0.6614333
11
2.7780751
21
0.3968667
0
LINE
8
DEFAULT_255_1_234
10
8.2692137
20
6.6911433
11
8.2692137
21
5.5161
0
LINE
8
DEFAULT_255_1_234
10
8.2692137
20
5.5161
11
8.1198234
21
5.5161
0
LINE
8
DEFAULT_255_1_234
10
8.1198234
20
5.5161
11
8.1198234
21
6.5064133
0
LINE
8
DEFAULT_255_1_234
10
8.1198234
20
6.5064133
11
7.8202396
21
6.3963785
0
LINE
8
DEFAULT_255_1_234
10
7.8202396
20
6.3963785
11
7.8202396
21
6.5313117
0
LINE
8
DEFAULT_255_1_234
10
7.8202396
20
6.5313117
11
8.2459217
21
6.6911433
0
LINE
8
DEFAULT_255_1_234
10
8.2459217
20
6.6911433
11
8.2692137
21
6.6911433
0
LINE
8
DEFAULT_255_1_234
10
9.4707618
20
5.6373792
11
9.4707618
21
5.5161
0
LINE
8
DEFAULT_255_1_234
10
9.4707618
20
5.5161
11
8.7045339
21
5.5161
0
LINE
8
DEFAULT_255_1_234
10
8.7045339
20
5.5161
11
8.7045339
21
5.6229221
0
LINE
8
DEFAULT_255_1_234
10
8.7045339
20
5.6229221
11
9.1093335
21
6.0726995
0
LINE
8
DEFAULT_255_1_234
10
8.8306322
20
6.3409595
11
8.6820451
21
6.3409595
0
LINE
8
DEFAULT_255_1_234
10
9.1968795
20
5.9771218
11
8.8836417
21
5.6373792
0
LINE
8
DEFAULT_255_1_234
10
8.8836417
20
5.6373792
11
9.4707618
21
5.6373792
0
ARC
8
DEFAULT_255_1_234
10
7.7603169
20
7.2656527
40
1.8008286
50
318.5132453
51
320.7828378
0
ARC
8
DEFAULT_255_1_234
10
8.2890143
20
6.8353426
40
1.1191493
50
320.7372736
51
323.9737074
0
ARC
8
DEFAULT_255_1_234
10
8.681
20
6.5513361
40
0.6350923
50
323.8961724
51
328.6421089
0
ARC
8
DEFAULT_255_1_234
10
8.8856595
20
6.4251031
40
0.3946393
50
328.8299013
51
331.789948
0
ARC
8
DEFAULT_255_1_234
10
8.9853774
20
6.3736509
40
0.2824501
50
331.4255242
51
352.9364833
0
ARC
8
DEFAULT_255_1_234
10
8.9990274
20
6.3705976
40
0.2685315
50
353.2248685
51
0.0169286
0
ARC
8
DEFAULT_255_1_234
10
9.0200151
20
6.372895
40
0.2475536
50
359.4866256
51
15.9339782
0
ARC
8
DEFAULT_255_1_234
10
9.0707136
20
6.3865286
40
0.1950618
50
16.1714718
51
43.5284424
0
ARC
8
DEFAULT_255_1_234
10
9.0784445
20
6.3942573
40
0.184134
50
43.4415429
51
83.1661404
0
ARC
8
DEFAULT_255_1_234
10
9.0650363
20
6.3205771
40
0.258926
50
82.160215
51
90.1505798
0
ARC
8
DEFAULT_255_1_234
10
9.061879
20
6.2668865
40
0.3126255
50
89.5460705
51
102.5418777
0
ARC
8
DEFAULT_255_1_234
10
9.0375876
20
6.3699665
40
0.2067346
50
102.1739365
51
129.2061916
0
ARC
8
DEFAULT_255_1_234
10
9.0296948
20
6.3824094
40
0.1921118
50
129.7279328
51
135.7542026
0
ARC
8
DEFAULT_255_1_234
10
9.0418476
20
6.3727045
40
0.2075944
50
136.175737
51
166.3674722
0
ARC
8
DEFAULT_255_1_234
10
9.1425395
20
6.3457182
40
0.3118201
50
165.9092917
51
178.8683903
0
ARC
8
DEFAULT_255_1_234
10
9.2290256
20
6.3410179
40
0.3983935
50
178.438168
51
180.0083905
0
ARC
8
DEFAULT_255_1_234
10
9.0888859
20
6.3449231
40
0.4068601
50
163.2878735
51
180.5581814
0
ARC
8
DEFAULT_255_1_234
10
9.008712
20
6.366984
40
0.3237344
50
133.454115
51
162.9470031
0
ARC
8
DEFAULT_255_1_234
10
9.0265661
20
6.348
40
0.349795
50
100.7869394
51
133.4384016
0
ARC
8
DEFAULT_255_1_234
10
9.0613433
20
6.1931319
40
0.5084616
50
89.6605301
51
101.3704185
0
ARC
8
DEFAULT_255_1_234
10
9.0679772
20
6.1992496
40
0.502348
50
78.2171172
51
90.4130393
0
ARC
8
DEFAULT_255_1_234
10
9.103485
20
6.3616637
40
0.3361092
50
55.9268222
51
78.4888551
0
ARC
8
DEFAULT_255_1_234
10
9.123129
20
6.3955324
40
0.2970617
50
47.9292255
51
55.4054003
0
ARC
8
DEFAULT_255_1_234
10
9.1332851
20
6.4058502
40
0.2825983
50
4.3347696
51
48.0560701
0
ARC
8
DEFAULT_255_1_234
10
9.0237244
20
6.3888601
40
0.393225
50
359.925209
51
5.5967654
0
ARC
8
DEFAULT_255_1_234
10
9.0666136
20
6.3944816
40
0.3503892
50
337.8914096
51
358.9967724
0
ARC
8
DEFAULT_255_1_234
10
8.7952548
20
6.4991706
40
0.6412172
50
326.9135351
51
338.3505194
0
ARC
8
DEFAULT_255_1_234
10
8.3966852
20
6.7546284
40
1.1146189
50
319.6472867
51
327.095818
0
ARC
8
DEFAULT_255_1_234
10
8.0133855
20
7.0708
40
1.6114559
50
317.2586784
51
319.9046139
0
ENDSEC
0
EOF