0
SECTION
2
HEADER
9
$MEASUREMENT
70
1
0
ENDSEC
0
SECTION
2
TABLES
0
TABLE
2
LTYPE
0
LTYPE
72
65
70
64
2
CONTINUOUS
3
______
73
0
40
0
0
ENDTAB
0
TABLE
2
LAYER
0
LAYER
2
DEFAULT_255_2_778
70
0
62
255
6
CONTINUOUS
0
LAYER
2
DEFAULT_255_1_388
70
0
62
255
6
CONTINUOUS
0
ENDTAB
0
ENDSEC
0
SECTION
2
ENTITIES
0
LINE
8
DEFAULT_255_2_778
10
6.1629021
20
5.6885667
11
3.7155021
21
5.6885667
0
LINE
8
DEFAULT_255_2_778
10
3.7155021
20
5.6885667
11
3.7155021
21
4.6302667
0
LINE
8
DEFAULT_255_2_778
10
3.7155021
20
4.6302667
11
6.1629021
21
4.6302667
0
ARC
8
DEFAULT_255_2_778
10
10.0958059
20
5.1632294
40
3.9990575
50
164.958672
51
180.0541499
0
ARC
8
DEFAULT_255_2_778
10
10.0474844
20
5.1728887
40
3.9498864
50
139.5324886
51
164.9120823
0
ARC
8
DEFAULT_255_2_778
10
10.0561121
20
5.1696868
40
3.9585294
50
107.8307628
51
139.5782791
0
ARC
8
DEFAULT_255_2_778
10
10.0589531
20
5.1471154
40
3.9808888
50
91.6628438
51
107.7702122
0
ARC
8
DEFAULT_255_2_778
10
10.0653728
20
5.0473686
40
4.0807814
50
89.9989151
51
91.7123026
0
ARC
8
DEFAULT_255_2_778
10
10.0692333
20
5.128808
40
3.9993437
50
74.9592121
51
90.0541994
0
ARC
8
DEFAULT_255_2_778
10
10.0789483
20
5.1773176
40
3.9499763
50
49.5331489
51
74.9127022
0
ARC
8
DEFAULT_255_2_778
10
10.0758326
20
5.1687957
40
3.958483
50
17.8308607
51
49.5788931
0
ARC
8
DEFAULT_255_2_778
10
10.053235
20
5.1659475
40
3.9808695
50
1.662844
51
17.7702931
0
ARC
8
DEFAULT_255_2_778
10
9.9534688
20
5.1595272
40
4.0807814
50
359.9989151
51
1.7123026
0
ARC
8
DEFAULT_255_2_778
10
10.0349193
20
5.155666
40
3.9993326
50
344.9591794
51
0.05421
0
ARC
8
DEFAULT_255_2_778
10
10.0834606
20
5.1459458
40
3.9499331
50
319.5327264
51
344.9126214
0
ARC
8
DEFAULT_255_2_778
10
10.0748769
20
5.1491261
40
3.9585286
50
287.8301403
51
319.57834
0
ARC
8
DEFAULT_255_2_778
10
10.0719544
20
5.1719298
40
3.9811341
50
271.6627163
51
287.7696917
0
ARC
8
DEFAULT_255_2_778
10
10.0655274
20
5.2718019
40
4.0811521
50
269.9989151
51
271.7122237
0
ARC
8
DEFAULT_255_2_778
10
10.0616699
20
5.1896946
40
3.9990465
50
254.9586392
51
270.0541605
0
ARC
8
DEFAULT_255_2_778
10
10.0520055
20
5.1413414
40
3.9498431
50
229.5320661
51
254.9120015
0
ARC
8
DEFAULT_255_2_778
10
10.0552719
20
5.1500308
40
3.958575
50
197.8300424
51
229.577726
0
ARC
8
DEFAULT_255_2_778
10
10.0780494
20
5.1529462
40
3.9811535
50
181.6627161
51
197.7696108
0
ARC
8
DEFAULT_255_2_778
10
10.1779021
20
5.1593726
40
4.0811521
50
179.9989151
51
181.7122237
0
LINE
8
DEFAULT_255_2_778
10
6.0967501
20
5.1594499
11
6.0967501
21
5.1594499
0
LINE
8
DEFAULT_255_2_778
10
10.0655
20
13.0968749
11
10.0655
21
9.1281749
0
LINE
8
DEFAULT_255_2_778
10
10.0655
20
-2.7780251
11
10.0655
21
1.1906749
0
ARC
8
DEFAULT_255_2_778
10
10.0699539
20
5.214578
40
3.9908206
50
269.9941361
51
286.7388848
0
ARC
8
DEFAULT_255_2_778
10
10.0697501
20
5.41248
40
4.1887226
50
269.9412091
51
269.9972003
0
ARC
8
DEFAULT_255_2_778
10
10.0611552
20
5.4105937
40
4.1868364
50
270.0028002
51
270.0588024
0
ARC
8
DEFAULT_255_2_778
10
10.0610256
20
5.2144102
40
3.9906529
50
253.2607608
51
270.0047978
0
LINE
8
DEFAULT_255_2_778
10
8.9116521
20
1.3928595
11
10.0654521
21
2.5466595
0
LINE
8
DEFAULT_255_2_778
10
10.0654521
20
2.5466595
11
11.2193521
21
1.3928595
0
ARC
8
DEFAULT_255_2_778
10
10.0699539
20
5.104241
40
3.9908206
50
73.2611152
51
90.0058639
0
ARC
8
DEFAULT_255_2_778
10
10.0697501
20
4.906339
40
4.1887226
50
90.0027997
51
90.0587909
0
ARC
8
DEFAULT_255_2_778
10
10.0611552
20
4.9082253
40
4.1868364
50
89.9411976
51
89.9971998
0
ARC
8
DEFAULT_255_2_778
10
10.0610256
20
5.1044087
40
3.9906529
50
89.9952022
51
106.7392392
0
LINE
8
DEFAULT_255_2_778
10
8.9116521
20
8.9259595
11
10.0654521
21
7.7721595
0
LINE
8
DEFAULT_255_2_778
10
10.0654521
20
7.7721595
11
11.2193521
21
8.9259595
0
ARC
8
DEFAULT_255_2_778
10
9.8148035
20
5.1338696
40
5.2530919
50
330.0187745
51
347.6958583
0
ARC
8
DEFAULT_255_2_778
10
9.7172659
20
5.153207
40
5.3525105
50
347.7161131
51
0.0407573
0
ARC
8
DEFAULT_255_2_778
10
9.7223667
20
5.1611485
40
5.3474099
50
359.9557052
51
12.9886798
0
ARC
8
DEFAULT_255_2_778
10
9.8140487
20
5.1799576
40
5.2538467
50
13.0135283
51
29.9790186
0
LINE
8
DEFAULT_255_2_778
10
14.1516847
20
8.3106943
11
14.2472847
21
7.4794943
0
LINE
8
DEFAULT_255_2_778
10
14.2472847
20
7.4794943
11
14.7268847
21
7.7030943
0
LINE
8
DEFAULT_255_2_778
10
14.7268847
20
7.7030943
11
14.1516847
21
8.3106943
0
LINE
8
DEFAULT_255_2_778
10
14.1204715
20
1.9468943
11
14.2161715
21
2.7780943
0
LINE
8
DEFAULT_255_2_778
10
14.2161715
20
2.7780943
11
14.6957715
21
2.5544943
0
LINE
8
DEFAULT_255_2_778
10
14.6957715
20
2.5544943
11
14.1204715
21
1.9468943
0
LINE
8
DEFAULT_255_1_388
10
7.5667985
20
11.9560148
11
7.5667985
21
10.6341
0
LINE
8
DEFAULT_255_1_388
10
7.5667985
20
10.6341
11
7.3987355
21
10.6341
0
LINE
8
DEFAULT_255_1_388
10
7.3987355
20
10.6341
11
7.3987355
21
11.748195
0
LINE
8
DEFAULT_255_1_388
10
7.3987355
20
11.748195
11
7.061706
21
11.6244066
0
LINE
8
DEFAULT_255_1_388
10
7.061706
20
11.6244066
11
7.061706
21
11.7762055
0
LINE
8
DEFAULT_255_1_388
10
7.061706
20
11.7762055
11
7.5405951
21
11.9560148
0
LINE
8
DEFAULT_255_1_388
10
7.5405951
20
11.9560148
11
7.5667985
21
11.9560148
0
LINE
8
DEFAULT_255_1_388
10
7.8711318
20
-1.8786618
11
7.8711318
21
-2.0151
0
LINE
8
DEFAULT_255_1_388
10
7.8711318
20
-2.0151
11
7.0091313
21
-2.0151
0
LINE
8
DEFAULT_255_1_388
10
7.0091313
20
-2.0151
11
7.0091313
21
-1.8949259
0
LINE
8
DEFAULT_255_1_388
10
7.0091313
20
-1.8949259
11
7.4645278
21
-1.3889298
0
LINE
8
DEFAULT_255_1_388
10
7.1509909
20
-1.0871393
11
6.9838315
21
-1.0871393
0
LINE
8
DEFAULT_255_1_388
10
7.5630163
20
-1.496454
11
7.2106262
21
-1.8786618
0
LINE
8
DEFAULT_255_1_388
10
7.2106262
20
-1.8786618
11
7.8711318
21
-1.8786618
0
ARC
8
DEFAULT_255_1_388
10
5.9469337
20
-0.0469017
40
2.0258655
50
318.5132526
51
320.7829045
0
ARC
8
DEFAULT_255_1_388
10
6.5417294
20
-0.5310071
40
1.2589638
50
320.7372878
51
323.9739031
0
ARC
8
DEFAULT_255_1_388
10
6.9826226
20
-0.8504446
40
0.7145141
50
323.8962701
51
328.64194
0
ARC
8
DEFAULT_255_1_388
10
7.2128484
20
-0.9924455
40
0.4440242
50
328.8294576
51
331.7891185
0
ARC
8
DEFAULT_255_1_388
10
7.3250804
20
-1.0503626
40
0.3177517
50
331.4254512
51
352.9365785
0
ARC
8
DEFAULT_255_1_388
10
7.3403804
20
-1.053795
40
0.3021496
50
353.2257659
51
0.0166158
0
ARC
8
DEFAULT_255_1_388
10
7.3640564
20
-1.0512106
40
0.2784847
50
359.486299
51
15.9343185
0
ARC
8
DEFAULT_255_1_388
10
7.4210831
20
-1.0358731
40
0.2194403
50
16.1712913
51
43.5286088
0
ARC
8
DEFAULT_255_1_388
10
7.4297776
20
-1.0271809
40
0.2071504
50
43.4417391
51
83.1661095
0
ARC
8
DEFAULT_255_1_388
10
7.4146937
20
-1.1100684
40
0.2912888
50
82.160179
51
90.1505708
0
ARC
8
DEFAULT_255_1_388
10
7.4111418
20
-1.1704721
40
0.3517025
50
89.5460741
51
102.5418361
0
ARC
8
DEFAULT_255_1_388
10
7.3838138
20
-1.0545067
40
0.2325748
50
102.1738499
51
129.206123
0
ARC
8
DEFAULT_255_1_388
10
7.3749592
20
-1.0405336
40
0.2161591
50
129.72865
51
135.753947
0
ARC
8
DEFAULT_255_1_388
10
7.3886074
20
-1.0514272
40
0.2335433
50
136.1757367
51
166.3673339
0
ARC
8
DEFAULT_255_1_388
10
7.5018762
20
-1.0817852
40
0.3507873
50
165.9090694
51
178.8684636
0
ARC
8
DEFAULT_255_1_388
10
7.5994534
20
-1.0870737
40
0.4484624
50
178.4391136
51
180.0083808
0
ARC
8
DEFAULT_255_1_388
10
7.4415235
20
-1.0826803
40
0.4577138
50
163.2878482
51
180.5581842
0
ARC
8
DEFAULT_255_1_388
10
7.3513276
20
-1.0578607
40
0.3641968
50
133.4540601
51
162.947111
0
ARC
8
DEFAULT_255_1_388
10
7.3714158
20
-1.0792211
40
0.3935189
50
100.7869829
51
133.4382499
0
ARC
8
DEFAULT_255_1_388
10
7.4105403
20
-1.2534601
40
0.5720313
50
89.660664
51
101.3702276
0
ARC
8
DEFAULT_255_1_388
10
7.4180012
20
-1.2465737
40
0.5651495
50
78.2172678
51
90.412935
0
ARC
8
DEFAULT_255_1_388
10
7.4579478
20
-1.0638489
40
0.378122
50
55.9269121
51
78.4888449
0
ARC
8
DEFAULT_255_1_388
10
7.4800193
20
-1.0257813
40
0.3342379
50
47.929771
51
55.4049217
0
ARC
8
DEFAULT_255_1_388
10
7.4914723
20
-1.0141382
40
0.3179217
50
4.334829
51
48.0560205
0
ARC
8
DEFAULT_255_1_388
10
7.3682525
20
-1.0332513
40
0.442341
50
359.9251713
51
5.5971671
0
ARC
8
DEFAULT_255_1_388
10
7.416468
20
-1.0269272
40
0.3941854
50
337.8914027
51
358.9967534
0
ARC
8
DEFAULT_255_1_388
10
7.111225
20
-0.9091705
40
0.7213271
50
326.9132501
51
338.3508308
0
ARC
8
DEFAULT_255_1_388
10
6.6628362
20
-0.6217895
40
1.2538973
50
319.6471833
51
327.0959558
0
ARC
8
DEFAULT_255_1_388
10
6.231502
20
-0.265995
40
1.8129975
50
317.2588228
51
319.9045804
0
ENDSEC
0
EOF