0
SECTION
2
HEADER
9
$MEASUREMENT
70
1
0
ENDSEC
0
SECTION
2
TABLES
0
TABLE
2
LTYPE
0
LTYPE
72
65
70
64
2
CONTINUOUS
3
______
73
0
40
0
0
ENDTAB
0
TABLE
2
LAYER
0
LAYER
2
DEFAULT_255_2_778
70
0
62
255
6
CONTINUOUS
0
LAYER
2
DEFAULT_255_1_234
70
0
62
255
6
CONTINUOUS
0
ENDTAB
0
ENDSEC
0
SECTION
2
ENTITIES
0
LINE
8
DEFAULT_255_2_778
10
6.1629021
20
5.6885667
11
3.7155021
21
5.6885667
0
LINE
8
DEFAULT_255_2_778
10
3.7155021
20
5.6885667
11
3.7155021
21
4.6302667
0
LINE
8
DEFAULT_255_2_778
10
3.7155021
20
4.6302667
11
6.1629021
21
4.6302667
0
ARC
8
DEFAULT_255_2_778
10
10.0958059
20
5.1632294
40
3.9990575
50
164.958672
51
180.0541499
0
ARC
8
DEFAULT_255_2_778
10
10.0474844
20
5.1728887
40
3.9498864
50
139.5324886
51
164.9120823
0
ARC
8
DEFAULT_255_2_778
10
10.0561121
20
5.1696868
40
3.9585294
50
107.8307628
51
139.5782791
0
ARC
8
DEFAULT_255_2_778
10
10.0589531
20
5.1471154
40
3.9808888
50
91.6628438
51
107.7702122
0
ARC
8
DEFAULT_255_2_778
10
10.0653728
20
5.0473686
40
4.0807814
50
89.9989151
51
91.7123026
0
ARC
8
DEFAULT_255_2_778
10
10.0692333
20
5.128808
40
3.9993437
50
74.9592121
51
90.0541994
0
ARC
8
DEFAULT_255_2_778
10
10.0789483
20
5.1773176
40
3.9499763
50
49.5331489
51
74.9127022
0
ARC
8
DEFAULT_255_2_778
10
10.0758326
20
5.1687957
40
3.958483
50
17.8308607
51
49.5788931
0
ARC
8
DEFAULT_255_2_778
10
10.053235
20
5.1659475
40
3.9808695
50
1.662844
51
17.7702931
0
ARC
8
DEFAULT_255_2_778
10
9.9534688
20
5.1595272
40
4.0807814
50
359.9989151
51
1.7123026
0
ARC
8
DEFAULT_255_2_778
10
10.0349193
20
5.155666
40
3.9993326
50
344.9591794
51
0.05421
0
ARC
8
DEFAULT_255_2_778
10
10.0834606
20
5.1459458
40
3.9499331
50
319.5327264
51
344.9126214
0
ARC
8
DEFAULT_255_2_778
10
10.0748769
20
5.1491261
40
3.9585286
50
287.8301403
51
319.57834
0
ARC
8
DEFAULT_255_2_778
10
10.0719544
20
5.1719298
40
3.9811341
50
271.6627163
51
287.7696917
0
ARC
8
DEFAULT_255_2_778
10
10.0655274
20
5.2718019
40
4.0811521
50
269.9989151
51
271.7122237
0
ARC
8
DEFAULT_255_2_778
10
10.0616699
20
5.1896946
40
3.9990465
50
254.9586392
51
270.0541605
0
ARC
8
DEFAULT_255_2_778
10
10.0520055
20
5.1413414
40
3.9498431
50
229.5320661
51
254.9120015
0
ARC
8
DEFAULT_255_2_778
10
10.0552719
20
5.1500308
40
3.958575
50
197.8300424
51
229.577726
0
ARC
8
DEFAULT_255_2_778
10
10.0780494
20
5.1529462
40
3.9811535
50
181.6627161
51
197.7696108
0
ARC
8
DEFAULT_255_2_778
10
10.1779021
20
5.1593726
40
4.0811521
50
179.9989151
51
181.7122237
0
LINE
8
DEFAULT_255_2_778
10
6.0967501
20
5.1594499
11
6.0967501
21
5.1594499
0
LINE
8
DEFAULT_255_2_778
10
10.0655
20
13.0968749
11
10.0655
21
9.1281749
0
LINE
8
DEFAULT_255_2_778
10
10.0655
20
-2.7780251
11
10.0655
21
1.1906749
0
ARC
8
DEFAULT_255_2_778
10
9.8148035
20
5.1338696
40
5.2530919
50
330.0187745
51
347.6958583
0
ARC
8
DEFAULT_255_2_778
10
9.7172659
20
5.153207
40
5.3525105
50
347.7161131
51
0.0407573
0
ARC
8
DEFAULT_255_2_778
10
9.7223667
20
5.1611485
40
5.3474099
50
359.9557052
51
12.9886798
0
ARC
8
DEFAULT_255_2_778
10
9.8140487
20
5.1799576
40
5.2538467
50
13.0135283
51
29.9790186
0
LINE
8
DEFAULT_255_2_778
10
14.1204715
20
1.9468943
11
14.2161715
21
2.7780943
0
LINE
8
DEFAULT_255_2_778
10
14.2161715
20
2.7780943
11
14.6957715
21
2.5544943
0
LINE
8
DEFAULT_255_2_778
10
14.6957715
20
2.5544943
11
14.1204715
21
1.9468943
0
LINE
8
DEFAULT_255_2_778
10
6.0967727
20
1.2996722
11
13.9350727
21
9.1281722
0
LINE
8
DEFAULT_255_2_778
10
13.9350727
20
9.1281722
11
12.0641727
21
8.1927722
0
LINE
8
DEFAULT_255_2_778
10
12.0641727
20
8.1927722
11
12.9995727
21
7.2572722
0
LINE
8
DEFAULT_255_2_778
10
12.9995727
20
7.2572722
11
13.9350727
21
9.1281722
0
LINE
8
DEFAULT_255_2_778
10
10.0654834
20
9.1281583
11
8.7425834
21
7.8052583
0
LINE
8
DEFAULT_255_2_778
10
8.7425834
20
7.8052583
11
11.3883834
21
7.8052583
0
LINE
8
DEFAULT_255_2_778
10
11.3883834
20
7.8052583
11
10.0654834
21
9.1281583
0
LINE
8
DEFAULT_255_2_778
10
10.0654834
20
1.1906583
11
8.7425834
21
2.5135583
0
LINE
8
DEFAULT_255_2_778
10
8.7425834
20
2.5135583
11
11.3883834
21
2.5135583
0
LINE
8
DEFAULT_255_2_778
10
11.3883834
20
2.5135583
11
10.0654834
21
1.1906583
0
LINE
8
DEFAULT_255_2_778
10
12.7113594
20
-2.7781428
11
12.7113594
21
-0.1323428
0
LINE
8
DEFAULT_255_2_778
10
12.7113594
20
-0.1323428
11
11.2230594
21
1.3559572
0
LINE
8
DEFAULT_255_1_234
10
7.5517137
20
11.9833433
11
7.5517137
21
10.8083
0
LINE
8
DEFAULT_255_1_234
10
7.5517137
20
10.8083
11
7.4023234
21
10.8083
0
LINE
8
DEFAULT_255_1_234
10
7.4023234
20
10.8083
11
7.4023234
21
11.7986133
0
LINE
8
DEFAULT_255_1_234
10
7.4023234
20
11.7986133
11
7.1027396
21
11.6885785
0
LINE
8
DEFAULT_255_1_234
10
7.1027396
20
11.6885785
11
7.1027396
21
11.8235117
0
LINE
8
DEFAULT_255_1_234
10
7.1027396
20
11.8235117
11
7.5284217
21
11.9833433
0
LINE
8
DEFAULT_255_1_234
10
7.5284217
20
11.9833433
11
7.5517137
21
11.9833433
0
LINE
8
DEFAULT_255_1_234
10
7.9168119
20
-1.7212208
11
7.9168119
21
-1.8425
0
LINE
8
DEFAULT_255_1_234
10
7.9168119
20
-1.8425
11
7.150584
21
-1.8425
0
LINE
8
DEFAULT_255_1_234
10
7.150584
20
-1.8425
11
7.150584
21
-1.7356779
0
LINE
8
DEFAULT_255_1_234
10
7.150584
20
-1.7356779
11
7.5553836
21
-1.2859005
0
LINE
8
DEFAULT_255_1_234
10
7.2766823
20
-1.0176405
11
7.1280952
21
-1.0176405
0
LINE
8
DEFAULT_255_1_234
10
7.6429296
20
-1.3814782
11
7.3296918
21
-1.7212208
0
LINE
8
DEFAULT_255_1_234
10
7.3296918
20
-1.7212208
11
7.9168119
21
-1.7212208
0
ARC
8
DEFAULT_255_1_234
10
6.206367
20
-0.0929473
40
1.8008286
50
318.5132453
51
320.7828378
0
ARC
8
DEFAULT_255_1_234
10
6.7350644
20
-0.5232574
40
1.1191493
50
320.7372736
51
323.9737074
0
ARC
8
DEFAULT_255_1_234
10
7.1270501
20
-0.8072639
40
0.6350923
50
323.8961724
51
328.6421089
0
ARC
8
DEFAULT_255_1_234
10
7.3317096
20
-0.9334969
40
0.3946393
50
328.8299013
51
331.789948
0
ARC
8
DEFAULT_255_1_234
10
7.4314274
20
-0.9849491
40
0.2824501
50
331.4255242
51
352.9364833
0
ARC
8
DEFAULT_255_1_234
10
7.4450775
20
-0.9880024
40
0.2685315
50
353.2248685
51
0.0169286
0
ARC
8
DEFAULT_255_1_234
10
7.4660652
20
-0.985705
40
0.2475536
50
359.4866256
51
15.9339782
0
ARC
8
DEFAULT_255_1_234
10
7.5167637
20
-0.9720714
40
0.1950618
50
16.1714718
51
43.5284424
0
ARC
8
DEFAULT_255_1_234
10
7.5244946
20
-0.9643427
40
0.184134
50
43.4415429
51
83.1661404
0
ARC
8
DEFAULT_255_1_234
10
7.5110864
20
-1.0380229
40
0.258926
50
82.160215
51
90.1505798
0
ARC
8
DEFAULT_255_1_234
10
7.5079291
20
-1.0917135
40
0.3126255
50
89.5460705
51
102.5418777
0
ARC
8
DEFAULT_255_1_234
10
7.4836377
20
-0.9886335
40
0.2067346
50
102.1739365
51
129.2061916
0
ARC
8
DEFAULT_255_1_234
10
7.4757449
20
-0.9761906
40
0.1921118
50
129.7279328
51
135.7542026
0
ARC
8
DEFAULT_255_1_234
10
7.4878977
20
-0.9858955
40
0.2075944
50
136.175737
51
166.3674722
0
ARC
8
DEFAULT_255_1_234
10
7.5885896
20
-1.0128818
40
0.3118201
50
165.9092917
51
178.8683903
0
ARC
8
DEFAULT_255_1_234
10
7.6750757
20
-1.0175821
40
0.3983935
50
178.438168
51
180.0083905
0
ARC
8
DEFAULT_255_1_234
10
7.5349359
20
-1.0136769
40
0.4068601
50
163.2878735
51
180.5581814
0
ARC
8
DEFAULT_255_1_234
10
7.4547621
20
-0.991616
40
0.3237344
50
133.454115
51
162.9470031
0
ARC
8
DEFAULT_255_1_234
10
7.4726162
20
-1.0106
40
0.349795
50
100.7869394
51
133.4384016
0
ARC
8
DEFAULT_255_1_234
10
7.5073934
20
-1.1654681
40
0.5084616
50
89.6605301
51
101.3704185
0
ARC
8
DEFAULT_255_1_234
10
7.5140273
20
-1.1593504
40
0.502348
50
78.2171172
51
90.4130393
0
ARC
8
DEFAULT_255_1_234
10
7.5495351
20
-0.9969363
40
0.3361092
50
55.9268222
51
78.4888551
0
ARC
8
DEFAULT_255_1_234
10
7.5691791
20
-0.9630676
40
0.2970617
50
47.9292255
51
55.4054003
0
ARC
8
DEFAULT_255_1_234
10
7.5793352
20
-0.9527498
40
0.2825983
50
4.3347696
51
48.0560701
0
ARC
8
DEFAULT_255_1_234
10
7.4697745
20
-0.9697399
40
0.393225
50
359.925209
51
5.5967654
0
ARC
8
DEFAULT_255_1_234
10
7.5126637
20
-0.9641184
40
0.3503892
50
337.8914096
51
358.9967724
0
ARC
8
DEFAULT_255_1_234
10
7.2413049
20
-0.8594294
40
0.6412172
50
326.9135351
51
338.3505194
0
ARC
8
DEFAULT_255_1_234
10
6.8427353
20
-0.6039716
40
1.1146189
50
319.6472867
51
327.095818
0
ARC
8
DEFAULT_255_1_234
10
6.4594356
20
-0.2878
40
1.6114559
50
317.2586784
51
319.9046139
0
LINE
8
DEFAULT_255_1_234
10
8.4364653
20
-1.8425
11
8.1127863
21
-1.8425
0
LINE
8
DEFAULT_255_1_234
10
8.1127863
20
-1.8425
11
8.1127863
21
-0.6730789
0
LINE
8
DEFAULT_255_1_234
10
8.1127863
20
-0.6730789
11
8.4428907
21
-0.6730789
0
LINE
8
DEFAULT_255_1_234
10
8.9585283
20
-1.2184339
11
8.9585283
21
-1.2931291
0
LINE
8
DEFAULT_255_1_234
10
8.4469066
20
-0.7999804
11
8.2669957
21
-0.7999804
0
LINE
8
DEFAULT_255_1_234
10
8.2669957
20
-0.7999804
11
8.2669957
21
-1.7164017
0
LINE
8
DEFAULT_255_1_234
10
8.2669957
20
-1.7164017
11
8.4292368
21
-1.7164017
0
LINE
8
DEFAULT_255_1_234
10
8.8059253
20
-1.2899164
11
8.8059253
21
-1.2216466
0
ARC
8
DEFAULT_255_1_234
10
8.446785
20
-1.2596106
40
0.5865446
50
75.4101064
51
90.3804066
0
ARC
8
DEFAULT_255_1_234
10
8.4697363
20
-1.1639508
40
0.4881916
50
60.145586
51
75.1888407
0
ARC
8
DEFAULT_255_1_234
10
8.4856139
20
-1.1362801
40
0.4562893
50
26.5253612
51
60.1450928
0
ARC
8
DEFAULT_255_1_234
10
8.3735888
20
-1.1956842
40
0.5830602
50
7.4030428
51
26.8320788
0
ARC
8
DEFAULT_255_1_234
10
8.2141645
20
-1.2205196
40
0.7443669
50
0.1605367
51
7.7176192
0
ARC
8
DEFAULT_255_1_234
10
8.2305549
20
-1.2969566
40
0.7279835
50
348.7289388
51
0.3012466
0
ARC
8
DEFAULT_255_1_234
10
8.396198
20
-1.3298614
40
0.559104
50
333.0706509
51
348.7181832
0
ARC
8
DEFAULT_255_1_234
10
8.4928737
20
-1.3823681
40
0.4491417
50
299.2531685
51
333.4571258
0
ARC
8
DEFAULT_255_1_234
10
8.4567877
20
-1.3138172
40
0.5265881
50
278.107187
51
299.0339503
0
ARC
8
DEFAULT_255_1_234
10
8.4311956
20
-1.1630784
40
0.679442
50
270.4443897
51
278.4511052
0
ARC
8
DEFAULT_255_1_234
10
8.4332786
20
-1.2559787
40
0.4604407
50
269.4970433
51
284.0205042
0
ARC
8
DEFAULT_255_1_234
10
8.4688087
20
-1.3925022
40
0.3193797
50
283.7700273
51
318.1555492
0
ARC
8
DEFAULT_255_1_234
10
8.4350845
20
-1.3672633
40
0.3613588
50
318.7415601
51
343.6873628
0
ARC
8
DEFAULT_255_1_234
10
8.2546868
20
-1.3109168
40
0.5503313
50
343.3325091
51
355.8548958
0
ARC
8
DEFAULT_255_1_234
10
8.0448553
20
-1.2909681
40
0.7610708
50
355.4988528
51
0.0791727
0
ARC
8
DEFAULT_255_1_234
10
8.1231175
20
-1.217422
40
0.6828208
50
359.6455037
51
9.8607896
0
ARC
8
DEFAULT_255_1_234
10
8.3591873
20
-1.1747901
40
0.4429406
50
9.6571907
51
26.1932807
0
ARC
8
DEFAULT_255_1_234
10
8.4519862
20
-1.1316882
40
0.3406537
50
26.5777228
51
40.1532208
0
ARC
8
DEFAULT_255_1_234
10
8.4775588
20
-1.1117381
40
0.308246
50
40.3840491
51
80.1431104
0
ARC
8
DEFAULT_255_1_234
10
8.4448706
20
-1.2566667
40
0.4566909
50
79.2152159
51
89.7445637
0
ENDSEC
0
EOF