0
SECTION
2
HEADER
9
$MEASUREMENT
70
1
0
ENDSEC
0
SECTION
2
TABLES
0
TABLE
2
LTYPE
0
LTYPE
72
65
70
64
2
CONTINUOUS
3
______
73
0
40
0
0
ENDTAB
0
TABLE
2
LAYER
0
LAYER
2
DEFAULT_255_2_778
70
0
62
255
6
CONTINUOUS
0
LAYER
2
DEFAULT_255_2_005
70
0
62
255
6
CONTINUOUS
0
ENDTAB
0
ENDSEC
0
SECTION
2
ENTITIES
0
ARC
8
DEFAULT_255_2_778
10
2.1088501
20
10.05718
40
1.3202532
50
148.7968675
51
180.1300552
0
ARC
8
DEFAULT_255_2_778
10
2.1079905
20
10.0576134
40
1.3192936
50
97.5665172
51
148.7936255
0
ARC
8
DEFAULT_255_2_778
10
2.1110959
20
10.0308924
40
1.3461909
50
89.9827905
51
97.547783
0
ARC
8
DEFAULT_255_2_778
10
15.343697
20
10.0568333
40
1.3202532
50
58.7968675
51
90.1300552
0
ARC
8
DEFAULT_255_2_778
10
15.3441304
20
10.0576929
40
1.3192936
50
7.5665172
51
58.7936255
0
ARC
8
DEFAULT_255_2_778
10
15.3174094
20
10.0545875
40
1.3461909
50
359.9827905
51
7.547783
0
ARC
8
DEFAULT_255_2_778
10
15.3432111
20
-0.5321022
40
1.3203925
50
328.79856
51
0.1295454
0
ARC
8
DEFAULT_255_2_778
10
15.344143
20
-0.5326203
40
1.3193271
50
277.5692592
51
328.7968374
0
ARC
8
DEFAULT_255_2_778
10
15.3411061
20
-0.5061555
40
1.3459613
50
269.9827213
51
277.549011
0
ARC
8
DEFAULT_255_2_778
10
2.1085136
20
-0.5319911
40
1.3201292
50
238.7930849
51
270.129625
0
ARC
8
DEFAULT_255_2_778
10
2.1082338
20
-0.5326051
40
1.319459
50
187.5665868
51
238.7896597
0
ARC
8
DEFAULT_255_2_778
10
2.1348329
20
-0.5295204
40
1.3462328
50
179.9828266
51
187.5476648
0
LINE
8
DEFAULT_255_2_778
10
2.1115002
20
11.3770831
11
15.3407002
21
11.3770831
0
LINE
8
DEFAULT_255_2_778
10
16.6636002
20
10.0541831
11
16.6636002
21
-0.5291169
0
LINE
8
DEFAULT_255_2_778
10
15.3407002
20
-1.8521169
11
2.1115002
21
-1.8521169
0
LINE
8
DEFAULT_255_2_778
10
0.7886002
20
-0.5291169
11
0.7886002
21
10.0541831
0
LINE
8
DEFAULT_255_2_005
10
2.1773094
20
7.4289224
11
1.7296508
21
7.4289224
0
LINE
8
DEFAULT_255_2_005
10
1.7296508
20
7.4289224
11
1.7296508
21
6.685
0
LINE
8
DEFAULT_255_2_005
10
1.7296508
20
6.685
11
1.4790665
21
6.685
0
LINE
8
DEFAULT_255_2_005
10
1.4790665
20
6.685
11
1.4790665
21
8.5852648
0
LINE
8
DEFAULT_255_2_005
10
1.4790665
20
8.5852648
11
2.1799196
21
8.5852648
0
LINE
8
DEFAULT_255_2_005
10
1.7296508
20
8.3790548
11
1.7296508
21
7.6338273
0
LINE
8
DEFAULT_255_2_005
10
1.7296508
20
7.6338273
11
2.1799196
21
7.6338273
0
LINE
8
DEFAULT_255_2_005
10
2.194276
20
8.3790548
11
1.7296508
21
8.3790548
0
ARC
8
DEFAULT_255_2_005
10
2.1867637
20
7.6006838
40
0.9846048
50
78.8378872
51
90.3982689
0
ARC
8
DEFAULT_255_2_005
10
2.254365
20
7.9290495
40
0.64937
50
58.9633026
51
79.081031
0
ARC
8
DEFAULT_255_2_005
10
2.3033772
20
8.0200406
40
0.5461575
50
48.0195244
51
58.4473223
0
ARC
8
DEFAULT_255_2_005
10
2.317804
20
8.0339173
40
0.5261943
50
3.3375193
51
48.1766174
0
ARC
8
DEFAULT_255_2_005
10
2.1177324
20
8.0051406
40
0.7278023
50
359.948256
51
4.6822645
0
ARC
8
DEFAULT_255_2_005
10
2.1379387
20
7.9982348
40
0.7076233
50
346.1878736
51
0.5059506
0
ARC
8
DEFAULT_255_2_005
10
2.3587562
20
7.9408902
40
0.47951
50
310.883279
51
346.5425963
0
ARC
8
DEFAULT_255_2_005
10
2.3086128
20
8.0086472
40
0.5635938
50
286.6926363
51
310.2287978
0
ARC
8
DEFAULT_255_2_005
10
2.2161265
20
8.299544
40
0.868812
50
274.685046
51
287.0245149
0
ARC
8
DEFAULT_255_2_005
10
2.179518
20
8.6584972
40
1.2295769
50
269.8970837
51
275.0190364
0
ARC
8
DEFAULT_255_2_005
10
2.1840005
20
8.3206723
40
0.6868571
50
269.6595829
51
279.4151606
0
ARC
8
DEFAULT_255_2_005
10
2.2258113
20
8.07842
40
0.4410317
50
279.2049296
51
294.9902726
0
ARC
8
DEFAULT_255_2_005
10
2.2729944
20
7.9731787
40
0.3257143
50
295.2884246
51
311.2913961
0
ARC
8
DEFAULT_255_2_005
10
2.284507
20
7.9560816
40
0.3052824
50
311.785391
51
347.2859876
0
ARC
8
DEFAULT_255_2_005
10
2.1246366
20
7.9971726
40
0.4703018
50
346.689202
51
0.1058321
0
ARC
8
DEFAULT_255_2_005
10
2.0044213
20
8.0018374
40
0.5905286
50
359.6316862
51
0.003462
0
ARC
8
DEFAULT_255_2_005
10
2.1596089
20
8.0059221
40
0.43536
50
359.4671144
51
15.5932948
0
ARC
8
DEFAULT_255_2_005
10
2.2611475
20
8.0333557
40
0.3301853
50
15.7443527
51
46.6200914
0
ARC
8
DEFAULT_255_2_005
10
2.2371381
20
8.0056857
40
0.3667901
50
46.8628752
51
75.667698
0
ARC
8
DEFAULT_255_2_005
10
2.1893353
20
7.8336396
40
0.5453275
50
75.276241
51
88.2916004
0
ARC
8
DEFAULT_255_2_005
10
2.1799164
20
7.692389
40
0.6868158
50
87.8574957
51
88.8020017
0
LINE
8
DEFAULT_255_2_005
10
3.8974667
20
7.7930528
11
3.7578181
21
7.6899478
0
LINE
8
DEFAULT_255_2_005
10
3.7578181
20
7.6899478
11
4.1806792
21
7.1848636
0
LINE
8
DEFAULT_255_2_005
10
4.2694279
20
7.5620453
11
4.4873841
21
7.5620453
0
LINE
8
DEFAULT_255_2_005
10
4.3268535
20
7.0099766
11
4.5983199
21
6.685
0
LINE
8
DEFAULT_255_2_005
10
4.5983199
20
6.685
11
4.3085817
21
6.685
0
LINE
8
DEFAULT_255_2_005
10
4.3085817
20
6.685
11
4.1819844
21
6.8350896
0
LINE
8
DEFAULT_255_2_005
10
4.0423358
20
7.0021458
11
3.5790157
21
7.5568248
0
LINE
8
DEFAULT_255_2_005
10
3.5790157
20
7.5568248
11
3.5359465
21
7.5255018
0
LINE
8
DEFAULT_255_2_005
10
3.6273054
20
7.8439527
11
3.7813104
21
7.9522783
0
ARC
8
DEFAULT_255_2_005
10
3.5221628
20
7.1977492
40
0.4456277
50
145.9607197
51
180.3143038
0
ARC
8
DEFAULT_255_2_005
10
3.6203538
20
7.1298123
40
0.5650238
50
136.5036807
51
145.8255844
0
ARC
8
DEFAULT_255_2_005
10
3.9755334
20
6.7975216
40
1.0514017
50
130.7653076
51
136.6902193
0
ARC
8
DEFAULT_255_2_005
10
4.4372698
20
6.2670842
40
1.7546497
50
127.0297683
51
130.8750008
0
ARC
8
DEFAULT_255_2_005
10
4.8829327
20
5.6835385
40
2.4889029
50
125.3032046
51
127.1300036
0
ARC
8
DEFAULT_255_2_005
10
5.3108859
20
9.2537086
40
2.4189827
50
217.0386933
51
219.5092453
0
ARC
8
DEFAULT_255_2_005
10
4.5828308
20
8.7052603
40
1.5074683
50
213.8221155
51
217.0675696
0
ARC
8
DEFAULT_255_2_005
10
4.0528152
20
8.3517359
40
0.870371
50
209.0312859
51
213.9088813
0
ARC
8
DEFAULT_255_2_005
10
3.7461361
20
8.1801879
40
0.5189759
50
204.7736196
51
208.9025152
0
ARC
8
DEFAULT_255_2_005
10
3.708731
20
8.1644824
40
0.4784343
50
190.9201375
51
204.9429366
0
ARC
8
DEFAULT_255_2_005
10
3.6402536
20
8.1497121
40
0.4084017
50
180.0504572
51
190.7054257
0
ARC
8
DEFAULT_255_2_005
10
3.8228011
20
8.154213
40
0.5909691
50
166.7093923
51
180.471248
0
ARC
8
DEFAULT_255_2_005
10
3.6382246
20
8.2005831
40
0.4006852
50
134.0260164
51
167.0948763
0
ARC
8
DEFAULT_255_2_005
10
3.6534306
20
8.1785311
40
0.4271316
50
102.0799989
51
133.4368173
0
ARC
8
DEFAULT_255_2_005
10
3.7021426
20
7.9756427
40
0.6357425
50
89.5695994
51
102.5462568
0
ARC
8
DEFAULT_255_2_005
10
3.7116885
20
8.0605025
40
0.5508856
50
74.3798079
51
90.4961531
0
ARC
8
DEFAULT_255_2_005
10
3.7420478
20
8.1747848
40
0.432652
50
48.1706484
51
74.1767286
0
ARC
8
DEFAULT_255_2_005
10
3.7910701
20
8.2189529
40
0.3671154
50
1.8577438
51
49.2744225
0
ARC
8
DEFAULT_255_2_005
10
3.7018583
20
8.2094948
40
0.456634
50
359.9866317
51
2.6810101
0
ARC
8
DEFAULT_255_2_005
10
3.752432
20
8.2065925
40
0.4060697
50
328.9759633
51
0.3944795
0
ARC
8
DEFAULT_255_2_005
10
3.6924416
20
8.2456572
40
0.4776192
50
318.014208
51
328.6691503
0
ARC
8
DEFAULT_255_2_005
10
3.46674
20
8.445614
40
0.7791497
50
311.3380527
51
318.1871836
0
ARC
8
DEFAULT_255_2_005
10
3.1830714
20
8.7661869
40
1.2072079
50
306.2830634
51
311.3972405
0
ARC
8
DEFAULT_255_2_005
10
3.4816185
20
7.5469165
40
0.7872536
50
332.6197584
51
357.3674745
0
ARC
8
DEFAULT_255_2_005
10
3.3306953
20
7.5617624
40
0.9387326
50
356.8853968
51
0.0172707
0
ARC
8
DEFAULT_255_2_005
10
3.3519773
20
7.5542726
40
1.1354334
50
347.7118492
51
0.3922253
0
ARC
8
DEFAULT_255_2_005
10
3.6746024
20
7.4811709
40
0.8046462
50
324.1551863
51
347.9086051
0
ARC
8
DEFAULT_255_2_005
10
3.7456067
20
7.3279091
40
0.6582526
50
289.7134642
51
311.5239783
0
ARC
8
DEFAULT_255_2_005
10
3.7092011
20
7.4144772
40
0.7520442
50
289.1210735
51
290.0998117
0
ARC
8
DEFAULT_255_2_005
10
3.6906829
20
7.4604048
40
0.8015077
50
270.0410107
51
289.296371
0
ARC
8
DEFAULT_255_2_005
10
3.6849928
20
7.510925
40
0.8520505
50
257.5903547
51
270.421212
0
ARC
8
DEFAULT_255_2_005
10
3.6227248
20
7.2450611
40
0.5790286
50
230.1384143
51
257.9544152
0
ARC
8
DEFAULT_255_2_005
10
3.6051686
20
7.2176687
40
0.5467653
50
228.7837178
51
229.7107904
0
ARC
8
DEFAULT_255_2_005
10
3.5617252
20
7.1727704
40
0.4843763
50
181.7294589
51
229.1499009
0
ARC
8
DEFAULT_255_2_005
10
3.738814
20
7.1950281
40
0.6622721
50
179.9760756
51
183.191961
0
ARC
8
DEFAULT_255_2_005
10
3.690268
20
7.3436242
40
0.4876535
50
270.1161527
51
306.6673455
0
ARC
8
DEFAULT_255_2_005
10
3.5977837
20
7.4846344
40
0.6560653
50
305.7919218
51
312.6566412
0
ARC
8
DEFAULT_255_2_005
10
4.0292308
20
6.8471811
40
0.8387182
50
126.0251758
51
134.8184327
0
ARC
8
DEFAULT_255_2_005
10
3.7880507
20
7.0871517
40
0.4985015
50
134.5962073
51
148.5958966
0
ARC
8
DEFAULT_255_2_005
10
3.6114049
20
7.1913742
40
0.2934409
50
147.9926243
51
179.2325403
0
ARC
8
DEFAULT_255_2_005
10
3.7028334
20
7.1916205
40
0.3848607
50
179.4515137
51
196.1844413
0
ARC
8
DEFAULT_255_2_005
10
3.6203114
20
7.1690975
40
0.2993343
50
196.4468685
51
227.4346901
0
ARC
8
DEFAULT_255_2_005
10
3.6424554
20
7.1944457
40
0.3329835
50
227.5787309
51
256.4854904
0
ARC
8
DEFAULT_255_2_005
10
3.6839277
20
7.3514659
40
0.4953609
50
256.0656589
51
268.8688961
0
ARC
8
DEFAULT_255_2_005
10
3.6911598
20
7.4856599
40
0.6296883
50
268.4520011
51
270.0088104
0
ARC
8
DEFAULT_255_2_005
10
3.7451648
20
8.1618863
40
0.271905
50
180.9910793
51
199.8958645
0
ARC
8
DEFAULT_255_2_005
10
3.9677141
20
8.2384382
40
0.5072363
50
199.4718863
51
210.01755
0
ARC
8
DEFAULT_255_2_005
10
4.2896737
20
8.4210187
40
0.8773559
50
209.8233489
51
216.5045612
0
ARC
8
DEFAULT_255_2_005
10
4.6278953
20
8.6659229
40
1.294919
50
216.3122107
51
219.4026121
0
ARC
8
DEFAULT_255_2_005
10
3.3839768
20
8.5188625
40
0.69202
50
305.0411691
51
310.1496402
0
ARC
8
DEFAULT_255_2_005
10
3.5490713
20
8.3241349
40
0.4367272
50
310.0664016
51
317.2479086
0
ARC
8
DEFAULT_255_2_005
10
3.6777598
20
8.2060734
40
0.262089
50
317.1025325
51
327.7676281
0
ARC
8
DEFAULT_255_2_005
10
3.7342002
20
8.1685756
40
0.1943535
50
328.2441529
51
330.101577
0
ARC
8
DEFAULT_255_2_005
10
3.6964172
20
8.1884211
40
0.2370058
50
330.4954179
51
349.0020542
0
ARC
8
DEFAULT_255_2_005
10
3.6044991
20
8.2071523
40
0.3308103
50
348.8545602
51
0.0048327
0
ARC
8
DEFAULT_255_2_005
10
3.5298208
20
8.2094227
40
0.4054947
50
359.6831318
51
359.9951324
0
ARC
8
DEFAULT_255_2_005
10
3.7444339
20
8.2120802
40
0.1909004
50
359.192031
51
26.9069666
0
ARC
8
DEFAULT_255_2_005
10
3.7409307
20
8.2069999
40
0.1963454
50
27.7663648
51
48.8784063
0
ARC
8
DEFAULT_255_2_005
10
3.7193837
20
8.1845549
40
0.2274288
50
48.5079312
51
83.6573437
0
ARC
8
DEFAULT_255_2_005
10
3.7062429
20
8.1063322
40
0.3066565
50
82.831711
51
90.1176821
0
ARC
8
DEFAULT_255_2_005
10
3.703026
20
8.1581921
40
0.2548092
50
89.4182802
51
106.777068
0
ARC
8
DEFAULT_255_2_005
10
3.688539
20
8.2106773
40
0.2003805
50
107.142906
51
139.5978537
0
ARC
8
DEFAULT_255_2_005
10
3.7288293
20
8.1752309
40
0.2540381
50
139.3996373
51
172.0777375
0
ARC
8
DEFAULT_255_2_005
10
3.8204164
20
8.1582448
40
0.3471176
50
171.3843798
51
180.1752373
0
LINE
8
DEFAULT_255_2_005
10
5.9138878
20
6.685
11
5.6606932
21
6.685
0
LINE
8
DEFAULT_255_2_005
10
5.3879217
20
7.5411633
11
5.6228445
21
7.5411633
0
LINE
8
DEFAULT_255_2_005
10
5.6228445
20
7.5411633
11
5.6228445
21
7.6520991
0
LINE
8
DEFAULT_255_2_005
10
5.0198759
20
7.7056093
11
4.7771223
21
7.7056093
0
LINE
8
DEFAULT_255_2_005
10
5.864293
20
7.6651503
11
5.864293
21
7.0151971
0
LINE
8
DEFAULT_255_2_005
10
5.9138878
20
6.705882
11
5.9138878
21
6.685
0
LINE
8
DEFAULT_255_2_005
10
5.6228445
20
7.0804535
11
5.6228445
21
7.3701917
0
LINE
8
DEFAULT_255_2_005
10
5.6228445
20
7.3701917
11
5.4336011
21
7.3701917
0
ARC
8
DEFAULT_255_2_005
10
5.8296022
20
6.7669262
40
0.1877289
50
197.0792015
51
205.8748436
0
ARC
8
DEFAULT_255_2_005
10
6.0309868
20
6.8307307
40
0.3989756
50
192.2925471
51
197.3442135
0
ARC
8
DEFAULT_255_2_005
10
6.3480622
20
6.9011787
40
0.7237814
50
189.1569245
51
192.3975554
0
ARC
8
DEFAULT_255_2_005
10
6.8051754
20
6.9757327
40
1.1869341
50
186.8685781
51
189.1984083
0
ARC
8
DEFAULT_255_2_005
10
5.2084724
20
7.2271262
40
0.5741795
50
294.0078834
51
316.7604577
0
ARC
8
DEFAULT_255_2_005
10
5.2294427
20
7.1976028
40
0.5387256
50
269.5041788
51
293.2480424
0
ARC
8
DEFAULT_255_2_005
10
5.2197717
20
7.2627618
40
0.6038851
50
255.4035219
51
270.4752658
0
ARC
8
DEFAULT_255_2_005
10
5.1823898
20
7.1176941
40
0.4540789
50
228.6139404
51
255.355175
0
ARC
8
DEFAULT_255_2_005
10
5.128367
20
7.0659714
40
0.3796096
50
181.8954005
51
229.5703642
0
ARC
8
DEFAULT_255_2_005
10
5.2246047
20
7.0764168
40
0.4761953
50
179.9854067
51
182.7685535
0
ARC
8
DEFAULT_255_2_005
10
5.2109852
20
7.0820465
40
0.4626085
50
161.0341839
51
180.6822573
0
ARC
8
DEFAULT_255_2_005
10
5.1395789
20
7.1006206
40
0.3890829
50
125.0524938
51
160.2033784
0
ARC
8
DEFAULT_255_2_005
10
5.2471531
20
6.9538365
40
0.5710391
50
106.2672971
51
125.4298659
0
ARC
8
DEFAULT_255_2_005
10
5.3401768
20
6.6498661
40
0.8889076
50
95.4858674
51
106.534901
0
ARC
8
DEFAULT_255_2_005
10
5.3845608
20
6.2437302
40
1.2974374
50
89.8515815
51
95.7223062
0
ARC
8
DEFAULT_255_2_005
10
5.2806486
20
7.6550612
40
0.3422088
50
359.5040514
51
14.318365
0
ARC
8
DEFAULT_255_2_005
10
5.3739537
20
7.6793181
40
0.2458036
50
14.2185666
51
45.2026771
0
ARC
8
DEFAULT_255_2_005
10
5.3798335
20
7.6816298
40
0.2400337
50
45.8098166
51
73.0032241
0
ARC
8
DEFAULT_255_2_005
10
5.3393643
20
7.5578945
40
0.3702028
50
72.6114151
51
85.7230898
0
ARC
8
DEFAULT_255_2_005
10
5.3247476
20
7.4096158
40
0.5191707
50
85.3348613
51
90.0857668
0
ARC
8
DEFAULT_255_2_005
10
5.3209087
20
7.5054897
40
0.4233073
50
89.5855775
51
103.4589233
0
ARC
8
DEFAULT_255_2_005
10
5.2961408
20
7.6087282
40
0.3171394
50
103.4482452
51
126.5404115
0
ARC
8
DEFAULT_255_2_005
10
5.2572895
20
7.6584208
40
0.2540879
50
126.1732738
51
141.5005383
0
ARC
8
DEFAULT_255_2_005
10
5.1957967
20
7.7066766
40
0.1759241
50
141.3331109
51
180.3476016
0
ARC
8
DEFAULT_255_2_005
10
5.086227
20
7.7038801
40
0.3091096
50
151.6374023
51
179.6794878
0
ARC
8
DEFAULT_255_2_005
10
5.1840709
20
7.655169
40
0.418364
50
142.4984906
51
152.1327556
0
ARC
8
DEFAULT_255_2_005
10
5.2357574
20
7.6145983
40
0.4840682
50
120.8284379
51
142.413226
0
ARC
8
DEFAULT_255_2_005
10
5.3033664
20
7.5087583
40
0.6096131
50
113.9637415
51
121.1871328
0
ARC
8
DEFAULT_255_2_005
10
5.3254994
20
7.4548279
40
0.6678864
50
93.3785149
51
113.8196987
0
ARC
8
DEFAULT_255_2_005
10
5.3379784
20
7.3304772
40
0.792773
50
89.974817
51
93.7492116
0
ARC
8
DEFAULT_255_2_005
10
5.3436455
20
7.3363775
40
0.7868904
50
79.1327576
51
90.3872676
0
ARC
8
DEFAULT_255_2_005
10
5.3964756
20
7.6004137
40
0.5176332
50
60.143509
51
79.3655184
0
ARC
8
DEFAULT_255_2_005
10
5.4381834
20
7.6805191
40
0.4274125
50
48.6191833
51
59.646626
0
ARC
8
DEFAULT_255_2_005
10
5.4459428
20
7.6908011
40
0.4145693
50
9.0349564
51
48.484438
0
ARC
8
DEFAULT_255_2_005
10
5.271076
20
7.652631
40
0.5933491
50
1.209004
51
10.0234272
0
ARC
8
DEFAULT_255_2_005
10
7.1051372
20
7.0112129
40
1.2408506
50
179.8160321
51
185.3205471
0
ARC
8
DEFAULT_255_2_005
10
6.6671003
20
6.9693903
40
0.8008236
50
185.2472632
51
192.7953613
0
ARC
8
DEFAULT_255_2_005
10
6.3808214
20
6.9036854
40
0.5071026
50
192.7195199
51
202.9585891
0
ARC
8
DEFAULT_255_2_005
10
5.2599691
20
7.2933739
40
0.424351
50
270.0067732
51
300.5034118
0
ARC
8
DEFAULT_255_2_005
10
5.2798961
20
7.272568
40
0.3963649
50
299.5481223
51
315.6096997
0
ARC
8
DEFAULT_255_2_005
10
5.3270264
20
7.2243537
40
0.3289614
50
315.8681473
51
334.0594724
0
ARC
8
DEFAULT_255_2_005
10
5.4265359
20
6.2369635
40
1.1332502
50
89.6427886
51
97.2868571
0
ARC
8
DEFAULT_255_2_005
10
5.3548345
20
6.7738302
40
0.5916326
50
96.9936462
51
109.7783453
0
ARC
8
DEFAULT_255_2_005
10
5.2467137
20
7.0632783
40
0.2826986
50
109.0084599
51
135.3268803
0
ARC
8
DEFAULT_255_2_005
10
5.2022904
20
7.1182918
40
0.2125764
50
137.4538061
51
182.108326
0
ARC
8
DEFAULT_255_2_005
10
5.2630635
20
7.1077982
40
0.2732186
50
179.4394013
51
195.7201155
0
ARC
8
DEFAULT_255_2_005
10
5.1961845
20
7.0895222
40
0.2038904
50
195.8684045
51
230.1571971
0
ARC
8
DEFAULT_255_2_005
10
5.2355777
20
7.1367026
40
0.2653543
50
230.1531847
51
259.7486234
0
ARC
8
DEFAULT_255_2_005
10
5.2581192
20
7.2429307
40
0.3739127
50
259.2465354
51
270.2911453
0
LINE
8
DEFAULT_255_2_005
10
6.2414747
20
8.0971474
11
6.4698719
21
8.0971474
0
LINE
8
DEFAULT_255_2_005
10
6.4698719
20
8.0971474
11
6.4763976
21
7.9405321
0
LINE
8
DEFAULT_255_2_005
10
8.2213523
20
7.631217
11
8.2213523
21
6.685
0
LINE
8
DEFAULT_255_2_005
10
8.2213523
20
6.685
11
7.9799038
21
6.685
0
LINE
8
DEFAULT_255_2_005
10
7.9799038
20
6.685
11
7.9799038
21
7.6168606
0
LINE
8
DEFAULT_255_2_005
10
7.3521377
20
7.6220812
11
7.3521377
21
6.685
0
LINE
8
DEFAULT_255_2_005
10
7.3521377
20
6.685
11
7.1093841
21
6.685
0
LINE
8
DEFAULT_255_2_005
10
7.1093841
20
6.685
11
7.1093841
21
7.610335
0
LINE
8
DEFAULT_255_2_005
10
6.4829232
20
7.7160503
11
6.4829232
21
6.685
0
LINE
8
DEFAULT_255_2_005
10
6.4829232
20
6.685
11
6.2414747
21
6.685
0
LINE
8
DEFAULT_255_2_005
10
6.2414747
20
6.685
11
6.2414747
21
8.0971474
0
ARC
8
DEFAULT_255_2_005
10
6.865841
20
7.612744
40
0.5090297
50
93.026098
51
139.9132343
0
ARC
8
DEFAULT_255_2_005
10
6.8947348
20
7.4108686
40
0.7123815
50
89.951062
51
94.4897649
0
ARC
8
DEFAULT_255_2_005
10
6.9015983
20
7.5267119
40
0.5965708
50
75.8910539
51
90.6007524
0
ARC
8
DEFAULT_255_2_005
10
6.9610071
20
7.7458816
40
0.3695545
50
23.9940338
51
76.5407496
0
ARC
8
DEFAULT_255_2_005
10
7.7378777
20
7.5908182
40
0.5349514
50
118.5759625
51
145.1953557
0
ARC
8
DEFAULT_255_2_005
10
7.7170858
20
7.6306186
40
0.4900547
50
99.1480548
51
118.6669724
0
ARC
8
DEFAULT_255_2_005
10
7.7463661
20
7.4670706
40
0.6561842
50
89.7790649
51
99.4017916
0
ARC
8
DEFAULT_255_2_005
10
7.7589511
20
7.4938908
40
0.6294394
50
73.2646992
51
90.9152861
0
ARC
8
DEFAULT_255_2_005
10
7.8303158
20
7.7363874
40
0.376667
50
10.7564591
51
73.0388203
0
ARC
8
DEFAULT_255_2_005
10
7.4418525
20
7.6269714
40
0.7795114
50
0.3120638
51
13.3293625
0
ARC
8
DEFAULT_255_2_005
10
7.4508557
20
7.6198801
40
0.5290568
50
359.6729971
51
8.7127631
0
ARC
8
DEFAULT_255_2_005
10
7.6454292
20
7.6508162
40
0.3320444
50
8.5221129
51
22.6805005
0
ARC
8
DEFAULT_255_2_005
10
7.7441901
20
7.6918814
40
0.2250863
50
22.7293056
51
42.2768719
0
ARC
8
DEFAULT_255_2_005
10
7.7642138
20
7.7045054
40
0.2018207
50
43.4493569
51
69.2722073
0
ARC
8
DEFAULT_255_2_005
10
7.7142709
20
7.5797563
40
0.3361812
50
68.8362427
51
81.9788192
0
ARC
8
DEFAULT_255_2_005
10
7.6816879
20
7.3615775
40
0.5567751
50
81.7915581
51
90.3002151
0
LINE
8
DEFAULT_255_2_005
10
7.6787705
20
7.9183449
11
7.6784195
21
7.918345
0
ARC
8
DEFAULT_255_2_005
10
7.6750696
20
7.5484841
40
0.369876
50
89.4810835
51
106.5054455
0
ARC
8
DEFAULT_255_2_005
10
7.656567
20
7.6166358
40
0.2992804
50
106.8159899
51
132.2753283
0
ARC
8
DEFAULT_255_2_005
10
7.6635773
20
7.6091425
40
0.3095408
50
132.3024261
51
166.9931219
0
ARC
8
DEFAULT_255_2_005
10
7.7687213
20
7.5790343
40
0.4188018
50
166.2172412
51
174.1003967
0
ARC
8
DEFAULT_255_2_005
10
6.6544146
20
7.6165206
40
0.4550116
50
359.221078
51
14.4875458
0
ARC
8
DEFAULT_255_2_005
10
6.8679307
20
7.6779285
40
0.2330007
50
13.0021074
51
76.7082593
0
ARC
8
DEFAULT_255_2_005
10
6.8135044
20
7.4856818
40
0.4326997
50
75.5470401
51
90.7421543
0
ARC
8
DEFAULT_255_2_005
10
6.8024735
20
7.4906972
40
0.4276822
50
89.2730258
51
106.8381212
0
ARC
8
DEFAULT_255_2_005
10
6.7703212
20
7.6074031
40
0.3066814
50
107.4046305
51
156.6218379
0
ARC
8
DEFAULT_255_2_005
10
6.8808076
20
7.5441273
40
0.4334393
50
154.739066
51
156.631173
0
LINE
8
DEFAULT_255_2_005
10
9.7783688
20
7.3975993
11
9.7783688
21
7.3754122
0
LINE
8
DEFAULT_255_2_005
10
8.8269312
20
6.8220383
11
8.8269312
21
6.1420672
0
LINE
8
DEFAULT_255_2_005
10
8.8269312
20
6.1420672
11
8.5854827
21
6.1420672
0
LINE
8
DEFAULT_255_2_005
10
8.5854827
20
6.1420672
11
8.5854827
21
8.0971474
0
LINE
8
DEFAULT_255_2_005
10
8.5854827
20
8.0971474
11
8.8060492
21
8.0971474
0
LINE
8
DEFAULT_255_2_005
10
8.8060492
20
8.0971474
11
8.8177953
21
7.9405321
0
LINE
8
DEFAULT_255_2_005
10
8.8269312
20
7.7238811
11
8.8269312
21
7.0491304
0
ARC
8
DEFAULT_255_2_005
10
8.6296297
20
7.3683333
40
1.1487609
50
349.5458841
51
0.3530685
0
ARC
8
DEFAULT_255_2_005
10
8.9992369
20
7.2973971
40
0.7724224
50
331.7803728
51
349.7457307
0
ARC
8
DEFAULT_255_2_005
10
9.1171293
20
7.2399746
40
0.6414108
50
323.2242299
51
331.3204769
0
ARC
8
DEFAULT_255_2_005
10
9.2509844
20
7.1264431
40
0.4663503
50
275.1519627
51
324.5512275
0
ARC
8
DEFAULT_255_2_005
10
9.232264
20
7.2566154
40
0.5977183
50
269.9287338
51
275.8187223
0
ARC
8
DEFAULT_255_2_005
10
9.2255256
20
7.310954
40
0.6520841
50
255.0666424
51
270.526759
0
ARC
8
DEFAULT_255_2_005
10
9.1796629
20
7.1393385
40
0.4744461
50
221.9729994
51
255.0774217
0
ARC
8
DEFAULT_255_2_005
10
9.1932644
20
7.6403799
40
0.4806957
50
94.4346657
51
141.3609566
0
ARC
8
DEFAULT_255_2_005
10
9.226564
20
7.4344638
40
0.688787
50
89.9133925
51
95.8720618
0
ARC
8
DEFAULT_255_2_005
10
9.2340061
20
7.580246
40
0.5430416
50
70.3259366
51
90.675366
0
ARC
8
DEFAULT_255_2_005
10
9.2503923
20
7.6476123
40
0.4741467
50
36.7636103
51
69.4497557
0
ARC
8
DEFAULT_255_2_005
10
9.1115321
20
7.5392984
40
0.6502272
50
16.0027021
51
37.0862588
0
ARC
8
DEFAULT_255_2_005
10
8.7801641
20
7.439282
40
0.9963384
50
4.5017071
51
16.2780559
0
ARC
8
DEFAULT_255_2_005
10
8.3783512
20
7.3999534
40
1.4000195
50
359.9036577
51
4.8155802
0
ARC
8
DEFAULT_255_2_005
10
8.6289814
20
7.4078803
40
0.907953
50
359.6806614
51
9.1298874
0
ARC
8
DEFAULT_255_2_005
10
8.9391026
20
7.4595176
40
0.5935699
50
8.9585266
51
23.6939414
0
ARC
8
DEFAULT_255_2_005
10
9.074824
20
7.5163552
40
0.446456
50
24.0139154
51
36.1947366
0
ARC
8
DEFAULT_255_2_005
10
9.1709871
20
7.5947323
40
0.3226315
50
35.0467224
51
84.5489398
0
ARC
8
DEFAULT_255_2_005
10
9.156431
20
7.4984939
40
0.4198515
50
83.8190878
51
90.0829503
0
ARC
8
DEFAULT_255_2_005
10
9.1500902
20
7.5305438
40
0.3878435
50
89.1530445
51
112.3458242
0
ARC
8
DEFAULT_255_2_005
10
9.1427387
20
7.5678637
40
0.350609
50
113.5534701
51
146.2372789
0
ARC
8
DEFAULT_255_2_005
10
9.2471507
20
7.4876587
40
0.4820636
50
145.2090456
51
150.6578963
0
ARC
8
DEFAULT_255_2_005
10
9.1745286
20
7.2375995
40
0.3954043
50
208.4667754
51
230.7447633
0
ARC
8
DEFAULT_255_2_005
10
9.1399417
20
7.2064891
40
0.3495006
50
231.9081192
51
266.0620747
0
ARC
8
DEFAULT_255_2_005
10
9.1579275
20
7.3353264
40
0.4793551
50
264.9748697
51
270.0604688
0
ARC
8
DEFAULT_255_2_005
10
9.1630677
20
7.2075467
40
0.3516056
50
269.2448103
51
292.338117
0
ARC
8
DEFAULT_255_2_005
10
9.165856
20
7.1846358
40
0.3294113
50
293.4041729
51
323.023121
0
ARC
8
DEFAULT_255_2_005
10
9.0993476
20
7.2430007
40
0.4177021
50
322.1147209
51
323.3497872
0
ARC
8
DEFAULT_255_2_005
10
9.0736476
20
7.2554448
40
0.4457815
50
324.0383623
51
342.5337333
0
ARC
8
DEFAULT_255_2_005
10
8.8032591
20
7.3440855
40
0.7303162
50
342.2671262
51
353.2818478
0
ARC
8
DEFAULT_255_2_005
10
8.3757851
20
7.3978178
40
1.1611459
50
353.1162905
51
0.2468216
0
LINE
8
DEFAULT_255_2_005
10
10.0929043
20
6.3065132
11
9.955866
21
6.4004823
0
LINE
8
DEFAULT_255_2_005
10
10.0837685
20
6.7528666
11
10.0837685
21
6.9708228
0
LINE
8
DEFAULT_255_2_005
10
10.0837685
20
6.9708228
11
10.3199964
21
6.9708228
0
LINE
8
DEFAULT_255_2_005
10
10.3199964
20
6.9708228
11
10.3199964
21
6.7815794
0
ARC
8
DEFAULT_255_2_005
10
10.2211421
20
7.9655674
40
0.173924
50
163.5417987
51
180.5083184
0
ARC
8
DEFAULT_255_2_005
10
10.1899184
20
7.9739919
40
0.1415948
50
138.1646462
51
163.2314713
0
ARC
8
DEFAULT_255_2_005
10
10.1716839
20
7.9894462
40
0.1177029
50
105.6860633
51
137.8493242
0
ARC
8
DEFAULT_255_2_005
10
10.1909275
20
7.9269803
40
0.1830525
50
92.6088067
51
106.1988278
0
ARC
8
DEFAULT_255_2_005
10
10.1958608
20
7.8627663
40
0.2474325
50
89.9655909
51
93.0731839
0
ARC
8
DEFAULT_255_2_005
10
10.1976003
20
7.8987336
40
0.211471
50
78.4381509
51
90.4310428
0
ARC
8
DEFAULT_255_2_005
10
10.2132944
20
7.9719072
40
0.1366386
50
56.8958742
51
78.7357896
0
ARC
8
DEFAULT_255_2_005
10
10.2235603
20
7.9898191
40
0.1160333
50
42.6504867
51
56.3115537
0
ARC
8
DEFAULT_255_2_005
10
10.2027505
20
7.9706981
40
0.144294
50
3.8140909
51
42.6363461
0
ARC
8
DEFAULT_255_2_005
10
10.1562312
20
7.964195
40
0.191173
50
359.9488713
51
4.8314264
0
ARC
8
DEFAULT_255_2_005
10
10.1929951
20
7.9624743
40
0.1544168
50
340.9377137
51
0.5751824
0
ARC
8
DEFAULT_255_2_005
10
10.2112789
20
7.9575412
40
0.1355309
50
316.0799223
51
340.3843889
0
ARC
8
DEFAULT_255_2_005
10
10.2207129
20
7.9488675
40
0.1227192
50
285.8513749
51
315.9416302
0
ARC
8
DEFAULT_255_2_005
10
10.2016309
20
8.0105492
40
0.1872737
50
273.1290559
51
286.3128772
0
ARC
8
DEFAULT_255_2_005
10
10.1962145
20
8.075927
40
0.2528564
50
269.9535214
51
273.5459287
0
ARC
8
DEFAULT_255_2_005
10
10.1944255
20
8.0403516
40
0.2172867
50
259.0487372
51
270.4176524
0
ARC
8
DEFAULT_255_2_005
10
10.1787668
20
7.9627692
40
0.138144
50
239.7584919
51
259.3120705
0
ARC
8
DEFAULT_255_2_005
10
10.1656146
20
7.9382549
40
0.1103461
50
222.6244394
51
239.2474519
0
ARC
8
DEFAULT_255_2_005
10
10.1874499
20
7.9582629
40
0.139962
50
182.9229831
51
222.5979992
0
ARC
8
DEFAULT_255_2_005
10
10.2311217
20
7.9639118
40
0.1838969
50
179.964916
51
183.9868943
0
ARC
8
DEFAULT_255_2_005
10
9.3666426
20
6.8296343
40
0.7289415
50
323.9328438
51
338.3173042
0
ARC
8
DEFAULT_255_2_005
10
9.5120436
20
6.7705448
40
0.571998
50
338.4362862
51
358.2289335
0
ARC
8
DEFAULT_255_2_005
10
9.7482587
20
6.7843261
40
0.5717443
50
338.8112193
51
359.7247407
0
ARC
8
DEFAULT_255_2_005
10
9.6293188
20
6.8255275
40
0.6975503
50
333.8355806
51
339.1869197
0
ARC
8
DEFAULT_255_2_005
10
9.6288571
20
6.8209842
40
0.6959744
50
322.3529769
51
334.1880465
0
ARC
8
DEFAULT_255_2_005
10
9.7435076
20
6.7337485
40
0.5519132
50
309.2766
51
322.2537544
0
LINE
8
DEFAULT_255_2_005
10
10.9568984
20
8.5852648
11
10.9568984
21
6.685
0
LINE
8
DEFAULT_255_2_005
10
10.9568984
20
6.685
11
10.706314
21
6.685
0
LINE
8
DEFAULT_255_2_005
10
10.706314
20
6.685
11
10.706314
21
8.5852648
0
LINE
8
DEFAULT_255_2_005
10
10.706314
20
8.5852648
11
10.9568984
21
8.5852648
0
LINE
8
DEFAULT_255_2_005
10
11.9409641
20
6.685
11
11.4149979
21
6.685
0
LINE
8
DEFAULT_255_2_005
10
11.4149979
20
6.685
11
11.4149979
21
8.5852648
0
LINE
8
DEFAULT_255_2_005
10
11.4149979
20
8.5852648
11
11.9514051
21
8.5852648
0
LINE
8
DEFAULT_255_2_005
10
12.7892966
20
7.6990836
11
12.7892966
21
7.5777068
0
LINE
8
DEFAULT_255_2_005
10
11.9579308
20
8.3790548
11
11.6655823
21
8.3790548
0
LINE
8
DEFAULT_255_2_005
10
11.6655823
20
8.3790548
11
11.6655823
21
6.8899049
0
LINE
8
DEFAULT_255_2_005
10
11.6655823
20
6.8899049
11
11.929218
21
6.8899049
0
LINE
8
DEFAULT_255_2_005
10
12.5413225
20
7.5829273
11
12.5413225
21
7.6938631
0
ARC
8
DEFAULT_255_2_005
10
11.9577319
20
7.6321693
40
0.9531166
50
75.4100957
51
90.3803337
0
ARC
8
DEFAULT_255_2_005
10
11.9950315
20
7.7876228
40
0.7932861
50
60.1455709
51
75.1889556
0
ARC
8
DEFAULT_255_2_005
10
12.0208286
20
7.8325796
40
0.7414536
50
26.5254201
51
60.1451234
0
ARC
8
DEFAULT_255_2_005
10
11.8387986
20
7.736053
40
0.9474441
50
7.4029841
51
26.832157
0
ARC
8
DEFAULT_255_2_005
10
11.5797501
20
7.6956971
40
1.2095513
50
0.1604187
51
7.7176048
0
ARC
8
DEFAULT_255_2_005
10
11.6063756
20
7.5714858
40
1.1829374
50
348.7289325
51
0.3013207
0
ARC
8
DEFAULT_255_2_005
10
11.8755303
20
7.5180173
40
0.9085234
50
333.070732
51
348.7182561
0
ARC
8
DEFAULT_255_2_005
10
12.0326249
20
7.4326978
40
0.7298392
50
299.2531778
51
333.4570817
0
ARC
8
DEFAULT_255_2_005
10
11.9739859
20
7.5440907
40
0.8556874
50
278.1072586
51
299.0339822
0
ARC
8
DEFAULT_255_2_005
10
11.9323981
20
7.7890664
40
1.1040997
50
270.4445281
51
278.4510099
0
ARC
8
DEFAULT_255_2_005
10
11.9357848
20
7.638086
40
0.7482099
50
269.4971244
51
284.020367
0
ARC
8
DEFAULT_255_2_005
10
11.9935216
20
7.4162275
40
0.5189779
50
283.7699984
51
318.1556526
0
ARC
8
DEFAULT_255_2_005
10
11.9387154
20
7.4572442
40
0.5871997
50
318.7416883
51
343.6872559
0
ARC
8
DEFAULT_255_2_005
10
11.6455793
20
7.5488043
40
0.8942696
50
343.332433
51
355.8547919
0
ARC
8
DEFAULT_255_2_005
10
11.3045332
20
7.5812198
40
1.2367903
50
355.4990788
51
0.0791048
0
ARC
8
DEFAULT_255_2_005
10
11.4317776
20
7.7007281
40
1.1095662
50
359.6455045
51
9.8607143
0
ARC
8
DEFAULT_255_2_005
10
11.8153884
20
7.7700032
40
0.7197635
50
9.6571703
51
26.193219
0
ARC
8
DEFAULT_255_2_005
10
11.9661764
20
7.8400367
40
0.5535595
50
26.5778423
51
40.1530915
0
ARC
8
DEFAULT_255_2_005
10
12.0077406
20
7.8724624
40
0.5008858
50
40.3839546
51
80.1432
0
ARC
8
DEFAULT_255_2_005
10
11.9546229
20
7.63696
40
0.7421023
50
79.2152121
51
89.7446043
0
LINE
8
DEFAULT_255_2_005
10
14.9753843
20
7.2879687
11
15.2272738
21
7.2879687
0
LINE
8
DEFAULT_255_2_005
10
13.7642265
20
7.5463838
11
13.7642265
21
7.7291016
0
LINE
8
DEFAULT_255_2_005
10
15.2272738
20
7.9744654
11
14.9753843
21
7.9744654
0
LINE
8
DEFAULT_255_2_005
10
14.016116
20
7.7225759
11
14.016116
21
7.538553
0
ARC
8
DEFAULT_255_2_005
10
14.3366823
20
7.3850118
40
0.895863
50
340.1775089
51
353.7813114
0
ARC
8
DEFAULT_255_2_005
10
14.5920335
20
7.2899056
40
0.6233973
50
311.4559074
51
340.4421575
0
ARC
8
DEFAULT_255_2_005
10
14.586619
20
7.3079298
40
0.6405389
50
282.4332604
51
310.7514916
0
ARC
8
DEFAULT_255_2_005
10
14.5152384
20
7.6028928
40
0.943973
50
269.9359035
51
282.8096008
0
ARC
8
DEFAULT_255_2_005
10
14.5068202
20
7.8371788
40
1.1782814
50
270.0011411
51
270.3579995
0
ARC
8
DEFAULT_255_2_005
10
14.498257
20
7.4171461
40
0.7582973
50
250.7885196
51
270.6488104
0
ARC
8
DEFAULT_255_2_005
10
14.4709301
20
7.3135888
40
0.6515675
50
219.3628097
51
250.0611818
0
ARC
8
DEFAULT_255_2_005
10
14.6056762
20
7.4281034
40
0.82838
50
193.5480106
51
219.5756091
0
ARC
8
DEFAULT_255_2_005
10
14.9910589
20
7.5281803
40
1.2265031
50
181.1218986
51
193.8755937
0
ARC
8
DEFAULT_255_2_005
10
15.3268748
20
7.5461543
40
1.5626481
50
179.9915842
51
181.5397219
0
ARC
8
DEFAULT_255_2_005
10
15.0267013
20
7.7351757
40
1.2624894
50
169.5837316
51
180.2756625
0
ARC
8
DEFAULT_255_2_005
10
14.7281645
20
7.790338
40
0.9588994
50
155.036551
51
169.6003585
0
ARC
8
DEFAULT_255_2_005
10
14.5436508
20
7.8792932
40
0.754086
50
136.7831469
51
155.2472148
0
ARC
8
DEFAULT_255_2_005
10
14.4803494
20
7.9330647
40
0.6711462
50
121.7631554
51
136.428049
0
ARC
8
DEFAULT_255_2_005
10
14.5022847
20
7.8925435
40
0.7171507
50
95.6460027
51
121.5489952
0
ARC
8
DEFAULT_255_2_005
10
14.5278429
20
7.7124491
40
0.8989189
50
89.9242834
51
96.137826
0
ARC
8
DEFAULT_255_2_005
10
14.5360368
20
7.7317312
40
0.8796641
50
76.6778435
51
90.4563266
0
ARC
8
DEFAULT_255_2_005
10
14.5999994
20
7.9901883
40
0.6134293
50
47.4858356
51
76.9287359
0
ARC
8
DEFAULT_255_2_005
10
14.5761105
20
7.9739468
40
0.6415789
50
16.5423816
51
46.8934531
0
ARC
8
DEFAULT_255_2_005
10
14.3148192
20
7.8880952
40
0.9165332
50
5.407334
51
17.0363761
0
ARC
8
DEFAULT_255_2_005
10
14.0810678
20
7.8505447
40
0.9028612
50
7.8889425
51
15.9242112
0
ARC
8
DEFAULT_255_2_005
10
14.4039044
20
7.9442907
40
0.566695
50
15.7651439
51
27.9411623
0
ARC
8
DEFAULT_255_2_005
10
14.583319
20
8.0403431
40
0.363189
50
27.8168182
51
46.4006978
0
ARC
8
DEFAULT_255_2_005
10
14.5913893
20
8.0394182
40
0.3583521
50
47.437174
51
75.0697035
0
ARC
8
DEFAULT_255_2_005
10
14.541246
20
7.8648598
40
0.5399475
50
74.7007843
51
87.812701
0
ARC
8
DEFAULT_255_2_005
10
14.529337
20
7.6935066
40
0.7116507
50
87.3811256
51
90.0246463
0
ARC
8
DEFAULT_255_2_005
10
14.5230819
20
7.8845912
40
0.5206001
50
89.3452627
51
108.5745294
0
ARC
8
DEFAULT_255_2_005
10
14.5008365
20
7.9680549
40
0.434433
50
109.2998817
51
143.3037581
0
ARC
8
DEFAULT_255_2_005
10
14.6246617
20
7.8728322
40
0.590625
50
143.0751618
51
163.1918582
0
ARC
8
DEFAULT_255_2_005
10
14.9418318
20
7.7727425
40
0.9231967
50
162.9375069
51
174.6208375
0
ARC
8
DEFAULT_255_2_005
10
15.3685756
20
7.7259494
40
1.352464
50
174.3420221
51
180.1429132
0
ARC
8
DEFAULT_255_2_005
10
15.2172712
20
7.5318802
40
1.2011738
50
179.6817068
51
189.1505686
0
ARC
8
DEFAULT_255_2_005
10
14.8109117
20
7.4641972
40
0.7892253
50
188.9909563
51
203.5773181
0
ARC
8
DEFAULT_255_2_005
10
14.6354727
20
7.3914035
40
0.5993251
50
203.9077407
51
215.1313425
0
ARC
8
DEFAULT_255_2_005
10
14.4855089
20
7.2751773
40
0.4098904
50
213.9071999
51
263.8848728
0
ARC
8
DEFAULT_255_2_005
10
14.505874
20
7.4026541
40
0.5388526
50
263.1756835
51
270.1031089
0
ARC
8
DEFAULT_255_2_005
10
14.5110859
20
7.6053031
40
0.7415128
50
269.6722073
51
279.0607892
0
ARC
8
DEFAULT_255_2_005
10
14.5544395
20
7.3432468
40
0.4759018
50
278.8749773
51
293.6349337
0
ARC
8
DEFAULT_255_2_005
10
14.6064723
20
7.2210543
40
0.3431012
50
293.8553161
51
310.0520874
0
ARC
8
DEFAULT_255_2_005
10
14.6072624
20
7.2109184
40
0.3348865
50
311.0645657
51
332.0110152
0
ARC
8
DEFAULT_255_2_005
10
14.4135274
20
7.3177547
40
0.5561108
50
331.6586216
51
343.2878337
0
ARC
8
DEFAULT_255_2_005
10
14.078345
20
7.4207566
40
0.906758
50
343.1447221
51
351.0104861
0
ARC
8
DEFAULT_255_2_005
10
13.8273174
20
7.4665529
40
1.1618737
50
350.7141199
51
351.1583762
0
LINE
8
DEFAULT_255_2_005
10
17.0309592
20
7.6938631
11
17.0309592
21
7.5737915
0
LINE
8
DEFAULT_255_2_005
10
15.5026556
20
7.5568248
11
15.5026556
21
7.6938631
0
LINE
8
DEFAULT_255_2_005
10
16.78168
20
7.5555197
11
16.78168
21
7.6964734
0
LINE
8
DEFAULT_255_2_005
10
15.7519348
20
7.71344
11
15.7519348
21
7.5737915
0
ARC
8
DEFAULT_255_2_005
10
15.6266578
20
7.5673557
40
1.4043162
50
350.4878461
51
0.2625801
0
ARC
8
DEFAULT_255_2_005
10
15.9993104
20
7.503264
40
1.0261969
50
336.0277702
51
350.5786896
0
ARC
8
DEFAULT_255_2_005
10
16.2178582
20
7.404507
40
0.7863775
50
319.8875164
51
336.1329729
0
ARC
8
DEFAULT_255_2_005
10
16.3157714
20
7.3261398
40
0.6610117
50
302.4806281
51
319.6144062
0
ARC
8
DEFAULT_255_2_005
10
16.2970836
20
7.3621565
40
0.7014392
50
275.8196239
51
302.1884426
0
ARC
8
DEFAULT_255_2_005
10
16.2700489
20
7.5478572
40
0.8889606
50
269.9172547
51
276.3394987
0
ARC
8
DEFAULT_255_2_005
10
16.2627731
20
7.4363357
40
0.7774614
50
252.522025
51
270.4415868
0
ARC
8
DEFAULT_255_2_005
10
16.239412
20
7.3487248
40
0.6868908
50
237.5351521
51
252.1858354
0
ARC
8
DEFAULT_255_2_005
10
16.2539093
20
7.367218
40
0.7102795
50
209.063298
51
237.3492299
0
ARC
8
DEFAULT_255_2_005
10
16.395415
20
7.4560767
40
0.8771781
50
205.1188962
51
209.6465934
0
ARC
8
DEFAULT_255_2_005
10
16.5247759
20
7.5109418
40
1.0176088
50
188.7215754
51
204.8240308
0
ARC
8
DEFAULT_255_2_005
10
16.8493404
20
7.5655761
40
1.3467133
50
180.3723248
51
188.9252731
0
ARC
8
DEFAULT_255_2_005
10
16.8449242
20
7.7003425
40
1.3422843
50
169.5253361
51
180.2765749
0
ARC
8
DEFAULT_255_2_005
10
16.5357833
20
7.7571966
40
1.0279589
50
155.8314918
51
169.5088714
0
ARC
8
DEFAULT_255_2_005
10
16.3277043
20
7.8537273
40
0.7986024
50
139.6258953
51
156.0379209
0
ARC
8
DEFAULT_255_2_005
10
16.2318805
20
7.9308278
40
0.6756652
50
122.6416113
51
139.343113
0
ARC
8
DEFAULT_255_2_005
10
16.2482327
20
7.9010317
40
0.7095792
50
93.0223726
51
122.455734
0
ARC
8
DEFAULT_255_2_005
10
16.2657836
20
7.7441092
40
0.8672581
50
89.9754734
51
93.633662
0
ARC
8
DEFAULT_255_2_005
10
16.2720825
20
7.8090249
40
0.8023644
50
73.7463415
51
90.4232895
0
ARC
8
DEFAULT_255_2_005
10
16.3006081
20
7.9195161
40
0.6883144
50
57.6629647
51
73.4516715
0
ARC
8
DEFAULT_255_2_005
10
16.2993161
20
7.9230318
40
0.6860415
50
29.1440182
51
57.4147442
0
ARC
8
DEFAULT_255_2_005
10
16.1473719
20
7.8281397
40
0.865008
50
24.0984919
51
29.732264
0
ARC
8
DEFAULT_255_2_005
10
15.9794314
20
7.7585135
40
1.0467525
50
8.6655503
51
23.8240809
0
ARC
8
DEFAULT_255_2_005
10
15.6163525
20
7.6992745
40
1.4146172
50
359.7808232
51
8.8218477
0
ARC
8
DEFAULT_255_2_005
10
15.4300023
20
7.703422
40
1.3516955
50
359.7054601
51
8.0359987
0
ARC
8
DEFAULT_255_2_005
10
15.9174946
20
7.7744166
40
0.8590682
50
7.8927159
51
20.2962623
0
ARC
8
DEFAULT_255_2_005
10
16.1819472
20
7.8719317
40
0.5772096
50
20.3231959
51
36.4990483
0
ARC
8
DEFAULT_255_2_005
10
16.2933565
20
7.9577361
40
0.4366224
50
36.1436835
51
85.6627503
0
ARC
8
DEFAULT_255_2_005
10
16.2669561
20
7.788708
40
0.607314
50
84.385073
51
90.0755892
0
ARC
8
DEFAULT_255_2_005
10
16.2600793
20
7.8960608
40
0.4999975
50
89.3037791
51
109.9046209
0
ARC
8
DEFAULT_255_2_005
10
16.2450335
20
7.9581654
40
0.4365368
50
110.8229965
51
143.9178645
0
ARC
8
DEFAULT_255_2_005
10
16.3967452
20
7.842338
40
0.6273766
50
143.5289096
51
163.2981574
0
ARC
8
DEFAULT_255_2_005
10
16.7067878
20
7.7448659
40
0.9523617
50
163.0420796
51
174.3138805
0
ARC
8
DEFAULT_255_2_005
10
17.0975306
20
7.6997582
40
1.3456653
50
174.0511097
51
179.4174438
0
ARC
8
DEFAULT_255_2_005
10
17.0154659
20
7.5670212
40
1.2635492
50
179.6930006
51
188.7907235
0
ARC
8
DEFAULT_255_2_005
10
16.5826523
20
7.4977905
40
0.8252427
50
188.6329525
51
202.5630513
0
ARC
8
DEFAULT_255_2_005
10
16.3788234
20
7.4159031
40
0.6056006
50
202.80806
51
216.1195076
0
ARC
8
DEFAULT_255_2_005
10
16.2473015
20
7.31007
40
0.4370456
50
215.0755887
51
264.6380097
0
ARC
8
DEFAULT_255_2_005
10
16.2679317
20
7.4451218
40
0.5734891
50
263.8467601
51
270.0832647
0
ARC
8
DEFAULT_255_2_005
10
16.2746575
20
7.4031299
40
0.5315294
50
269.3648207
51
287.5151414
0
ARC
8
DEFAULT_255_2_005
10
16.3036081
20
7.297972
40
0.4225533
50
288.062911
51
323.811458
0
ARC
8
DEFAULT_255_2_005
10
16.1620472
20
7.4035659
40
0.5991535
50
323.6547494
51
342.6590618
0
ARC
8
DEFAULT_255_2_005
10
15.831965
20
7.5109583
40
0.9462509
50
342.4091159
51
353.6451707
0
ARC
8
DEFAULT_255_2_005
10
15.3718473
20
7.5681994
40
1.4098896
50
353.4029196
51
359.4847075
0
LINE
8
DEFAULT_255_2_005
10
18.8672729
20
8.5852648
11
18.8672729
21
6.685
0
LINE
8
DEFAULT_255_2_005
10
18.8672729
20
6.685
11
18.6153833
21
6.685
0
LINE
8
DEFAULT_255_2_005
10
18.6153833
20
6.685
11
17.6587253
21
8.1493524
0
LINE
8
DEFAULT_255_2_005
10
17.6587253
20
8.1493524
11
17.6587253
21
6.685
0
LINE
8
DEFAULT_255_2_005
10
17.6587253
20
6.685
11
17.4068358
21
6.685
0
LINE
8
DEFAULT_255_2_005
10
17.4068358
20
6.685
11
17.4068358
21
8.5852648
0
LINE
8
DEFAULT_255_2_005
10
17.4068358
20
8.5852648
11
17.6587253
21
8.5852648
0
LINE
8
DEFAULT_255_2_005
10
17.6587253
20
8.5852648
11
18.6179936
21
7.1143868
0
LINE
8
DEFAULT_255_2_005
10
18.6179936
20
7.1143868
11
18.6179936
21
8.5852648
0
LINE
8
DEFAULT_255_2_005
10
18.6179936
20
8.5852648
11
18.8672729
21
8.5852648
0
LINE
8
DEFAULT_255_2_005
10
20.7727582
20
8.5852648
11
20.7727582
21
6.685
0
LINE
8
DEFAULT_255_2_005
10
20.7727582
20
6.685
11
20.5208687
21
6.685
0
LINE
8
DEFAULT_255_2_005
10
20.5208687
20
6.685
11
19.5642106
21
8.1493524
0
LINE
8
DEFAULT_255_2_005
10
19.5642106
20
8.1493524
11
19.5642106
21
6.685
0
LINE
8
DEFAULT_255_2_005
10
19.5642106
20
6.685
11
19.3123211
21
6.685
0
LINE
8
DEFAULT_255_2_005
10
19.3123211
20
6.685
11
19.3123211
21
8.5852648
0
LINE
8
DEFAULT_255_2_005
10
19.3123211
20
8.5852648
11
19.5642106
21
8.5852648
0
LINE
8
DEFAULT_255_2_005
10
19.5642106
20
8.5852648
11
20.523479
21
7.1143868
0
LINE
8
DEFAULT_255_2_005
10
20.523479
20
7.1143868
11
20.523479
21
8.5852648
0
LINE
8
DEFAULT_255_2_005
10
20.523479
20
8.5852648
11
20.7727582
21
8.5852648
0
LINE
8
DEFAULT_255_2_778
10
0.7886002
20
3.4396
11
16.6636002
21
3.4396
0
LINE
8
DEFAULT_255_2_778
10
6.0802335
20
3.4396333
11
6.0802335
21
-1.5874667
0
LINE
8
DEFAULT_255_2_778
10
11.3719335
20
3.4396333
11
11.3719335
21
-1.8520667
0
LINE
8
DEFAULT_255_2_778
10
1.8469335
20
2.3813333
11
5.0219335
21
2.3813333
0
LINE
8
DEFAULT_255_2_778
10
1.8469335
20
1.3229333
11
5.0219335
21
1.3229333
0
LINE
8
DEFAULT_255_2_778
10
1.8469335
20
0.2646333
11
5.0219335
21
0.2646333
0
LINE
8
DEFAULT_255_2_778
10
1.8469335
20
-0.7936667
11
5.0219335
21
-0.7936667
0
LINE
8
DEFAULT_255_2_778
10
7.1386335
20
2.3813333
11
10.3136335
21
2.3813333
0
LINE
8
DEFAULT_255_2_778
10
7.1386335
20
1.3229333
11
10.3136335
21
1.3229333
0
LINE
8
DEFAULT_255_2_778
10
7.1386335
20
0.2646333
11
10.3136335
21
0.2646333
0
LINE
8
DEFAULT_255_2_778
10
7.1386335
20
-0.7936667
11
10.3136335
21
-0.7936667
0
LINE
8
DEFAULT_255_2_778
10
12.4302335
20
2.3813333
11
15.6052335
21
2.3813333
0
LINE
8
DEFAULT_255_2_778
10
12.4302335
20
1.3229333
11
15.6052335
21
1.3229333
0
LINE
8
DEFAULT_255_2_778
10
12.4302335
20
0.2646333
11
15.6052335
21
0.2646333
0
LINE
8
DEFAULT_255_2_778
10
12.4302335
20
-0.7936667
11
15.6052335
21
-0.7936667
0
ENDSEC
0
EOF