0
SECTION
2
HEADER
9
$MEASUREMENT
70
1
0
ENDSEC
0
SECTION
2
TABLES
0
TABLE
2
LTYPE
0
LTYPE
72
65
70
64
2
CONTINUOUS
3
______
73
0
40
0
0
ENDTAB
0
TABLE
2
LAYER
0
LAYER
2
DEFAULT_255_2_778
70
0
62
255
6
CONTINUOUS
0
LAYER
2
DEFAULT_255_2_159
70
0
62
255
6
CONTINUOUS
0
ENDTAB
0
ENDSEC
0
SECTION
2
ENTITIES
0
ARC
8
DEFAULT_255_2_778
10
1.8494501
20
10.05718
40
1.3202532
50
148.7968675
51
180.1300552
0
ARC
8
DEFAULT_255_2_778
10
1.8485905
20
10.0576134
40
1.3192936
50
97.5665172
51
148.7936255
0
ARC
8
DEFAULT_255_2_778
10
1.8516959
20
10.0308924
40
1.3461909
50
89.9827905
51
97.547783
0
ARC
8
DEFAULT_255_2_778
10
15.084297
20
10.0568333
40
1.3202532
50
58.7968675
51
90.1300552
0
ARC
8
DEFAULT_255_2_778
10
15.0847304
20
10.0576929
40
1.3192936
50
7.5665172
51
58.7936255
0
ARC
8
DEFAULT_255_2_778
10
15.0580094
20
10.0545875
40
1.3461909
50
359.9827905
51
7.547783
0
ARC
8
DEFAULT_255_2_778
10
15.0838111
20
-0.5321022
40
1.3203925
50
328.79856
51
0.1295454
0
ARC
8
DEFAULT_255_2_778
10
15.084743
20
-0.5326203
40
1.3193271
50
277.5692592
51
328.7968374
0
ARC
8
DEFAULT_255_2_778
10
15.0817061
20
-0.5061555
40
1.3459613
50
269.9827213
51
277.549011
0
ARC
8
DEFAULT_255_2_778
10
1.8491136
20
-0.5319911
40
1.3201292
50
238.7930849
51
270.129625
0
ARC
8
DEFAULT_255_2_778
10
1.8488338
20
-0.5326051
40
1.319459
50
187.5665868
51
238.7896597
0
ARC
8
DEFAULT_255_2_778
10
1.8754329
20
-0.5295204
40
1.3462328
50
179.9828266
51
187.5476648
0
LINE
8
DEFAULT_255_2_778
10
1.8521002
20
11.3770831
11
15.0813002
21
11.3770831
0
LINE
8
DEFAULT_255_2_778
10
16.4042002
20
10.0541831
11
16.4042002
21
-0.5291169
0
LINE
8
DEFAULT_255_2_778
10
15.0813002
20
-1.8521169
11
1.8521002
21
-1.8521169
0
LINE
8
DEFAULT_255_2_778
10
0.5292002
20
-0.5291169
11
0.5292002
21
10.0541831
0
LINE
8
DEFAULT_255_2_159
10
4.5552625
20
9.8817107
11
4.2839976
21
9.8817107
0
LINE
8
DEFAULT_255_2_159
10
3.0724414
20
9.0201284
11
3.3437063
21
9.0201284
0
ARC
8
DEFAULT_255_2_159
10
4.399252
20
11.4472702
40
2.191471
50
248.9197112
51
254.1440684
0
ARC
8
DEFAULT_255_2_159
10
4.1052044
20
10.6902551
40
1.3793573
50
241.6337352
51
249.0064892
0
ARC
8
DEFAULT_255_2_159
10
3.8377125
20
10.2001164
40
0.8209872
50
230.4982414
51
241.8086052
0
ARC
8
DEFAULT_255_2_159
10
3.7005492
20
10.025339
40
0.598902
50
227.4063931
51
229.9873423
0
ARC
8
DEFAULT_255_2_159
10
3.6151275
20
9.94195
40
0.4797438
50
200.6781697
51
228.1764951
0
ARC
8
DEFAULT_255_2_159
10
3.6277846
20
9.9393254
40
0.4907078
50
179.5063184
51
199.8695662
0
ARC
8
DEFAULT_255_2_159
10
3.6261635
20
9.9522977
40
0.4891464
50
132.4833389
51
181.0243029
0
ARC
8
DEFAULT_255_2_159
10
3.7304711
20
9.8537685
40
0.6323413
50
129.2536868
51
133.4238934
0
ARC
8
DEFAULT_255_2_159
10
3.7560186
20
9.8154063
40
0.6782273
50
101.9878441
51
128.8742771
0
ARC
8
DEFAULT_255_2_159
10
3.8257717
20
9.5142044
40
0.9873647
50
89.5906187
51
102.3169306
0
ARC
8
DEFAULT_255_2_159
10
3.838108
20
9.569928
40
0.931631
50
77.2359857
51
90.3248239
0
ARC
8
DEFAULT_255_2_159
10
3.8743391
20
9.7391651
40
0.7585741
50
63.8380032
51
77.0807785
0
ARC
8
DEFAULT_255_2_159
10
3.9229591
20
9.8297575
40
0.6558359
50
45.9862206
51
64.1608797
0
ARC
8
DEFAULT_255_2_159
10
3.9686108
20
9.8818931
40
0.5866311
50
32.2746127
51
45.6547336
0
ARC
8
DEFAULT_255_2_159
10
3.9802325
20
9.8852159
40
0.5750407
50
359.6507434
51
32.6130153
0
ARC
8
DEFAULT_255_2_159
10
3.8152202
20
9.8860505
40
0.4687974
50
359.469589
51
14.9831758
0
ARC
8
DEFAULT_255_2_159
10
3.9386128
20
9.9191059
40
0.3410541
50
14.9781015
51
48.2005281
0
ARC
8
DEFAULT_255_2_159
10
3.9098513
20
9.8829613
40
0.3871786
50
48.5926965
51
74.1242337
0
ARC
8
DEFAULT_255_2_159
10
3.8514901
20
9.6903484
40
0.5884197
50
73.7887443
51
86.665468
0
ARC
8
DEFAULT_255_2_159
10
3.8335639
20
9.4791154
40
0.8003573
50
86.2639083
51
90.0527971
0
ARC
8
DEFAULT_255_2_159
10
3.8286087
20
9.548266
40
0.7312184
50
89.6695098
51
99.2311948
0
ARC
8
DEFAULT_255_2_159
10
3.7861681
20
9.8010535
40
0.4748982
50
99.0696326
51
113.7658123
0
ARC
8
DEFAULT_255_2_159
10
3.738249
20
9.9140579
40
0.3521691
50
114.0399687
51
127.9850889
0
ARC
8
DEFAULT_255_2_159
10
3.6961754
20
9.9658629
40
0.2854463
50
127.7286833
51
176.7105619
0
ARC
8
DEFAULT_255_2_159
10
3.8150211
20
9.9481798
40
0.4052556
50
175.1785576
51
180.0579321
0
ARC
8
DEFAULT_255_2_159
10
3.6674001
20
9.9460348
40
0.2576403
50
179.6141121
51
228.1246007
0
ARC
8
DEFAULT_255_2_159
10
3.7447807
20
10.0176899
40
0.3627792
50
226.5787291
51
230.8791526
0
ARC
8
DEFAULT_255_2_159
10
3.8271236
20
10.1270119
40
0.499574
50
231.4634561
51
241.9261625
0
ARC
8
DEFAULT_255_2_159
10
4.0366137
20
10.512527
40
0.9383241
50
241.7176394
51
248.3259984
0
ARC
8
DEFAULT_255_2_159
10
4.2790068
20
11.1130248
40
1.5858925
50
248.2003767
51
252.45291
0
ARC
8
DEFAULT_255_2_159
10
4.4898674
20
11.7649229
40
2.2710341
50
252.3391617
51
254.3465287
0
ARC
8
DEFAULT_255_2_159
10
3.169838
20
7.0435285
40
2.6314195
50
71.0195529
51
74.4085588
0
ARC
8
DEFAULT_255_2_159
10
3.4664421
20
7.8996775
40
1.7253518
50
66.1846675
51
71.0866035
0
ARC
8
DEFAULT_255_2_159
10
3.7387683
20
8.5128141
40
1.0544611
50
59.3536153
51
66.2694061
0
ARC
8
DEFAULT_255_2_159
10
3.8942508
20
8.7758584
40
0.7489009
50
49.1022462
51
59.3293238
0
ARC
8
DEFAULT_255_2_159
10
4.0375284
20
8.9391757
40
0.5316489
50
32.7921736
51
49.2504228
0
ARC
8
DEFAULT_255_2_159
10
4.0934888
20
8.9789975
40
0.46305
50
31.1185189
51
32.4001673
0
ARC
8
DEFAULT_255_2_159
10
4.0782397
20
8.9729457
40
0.4792399
50
8.1117918
51
30.7957333
0
ARC
8
DEFAULT_255_2_159
10
3.9364406
20
8.948792
40
0.6230408
50
359.8390238
51
8.4707622
0
ARC
8
DEFAULT_255_2_159
10
4.0459497
20
8.9402847
40
0.5135737
50
337.473258
51
0.7538281
0
ARC
8
DEFAULT_255_2_159
10
4.0772203
20
8.9368316
40
0.4834459
50
307.5916809
51
336.4313821
0
ARC
8
DEFAULT_255_2_159
10
3.9949009
20
9.0287973
40
0.6066037
50
307.6596806
51
308.453724
0
ARC
8
DEFAULT_255_2_159
10
3.9563996
20
9.0886921
40
0.6775703
50
284.3733085
51
307.1426524
0
ARC
8
DEFAULT_255_2_159
10
3.8697422
20
9.4074894
40
1.0079121
50
272.4383239
51
284.6465719
0
ARC
8
DEFAULT_255_2_159
10
3.8475591
20
9.7222806
40
1.3233911
50
269.970668
51
272.8180457
0
ARC
8
DEFAULT_255_2_159
10
3.8400386
20
9.3658011
40
0.9669357
50
248.2706973
51
270.405483
0
ARC
8
DEFAULT_255_2_159
10
3.8304377
20
9.3322128
40
0.9321863
50
246.1380748
51
248.0545645
0
ARC
8
DEFAULT_255_2_159
10
3.7572872
20
9.1785838
40
0.7621121
50
233.1671782
51
246.4951591
0
ARC
8
DEFAULT_255_2_159
10
3.6603285
20
9.0476826
40
0.599216
50
215.3404523
51
233.084153
0
ARC
8
DEFAULT_255_2_159
10
3.612621
20
9.0129801
40
0.5402269
50
179.2418334
51
215.2649068
0
ARC
8
DEFAULT_255_2_159
10
3.7469529
20
9.0154518
40
0.4032737
50
179.3355474
51
199.1044547
0
ARC
8
DEFAULT_255_2_159
10
3.6887926
20
9.0002437
40
0.3433709
50
199.8828648
51
232.7063886
0
ARC
8
DEFAULT_255_2_159
10
3.7714392
20
9.1041944
40
0.4761516
50
232.373666
51
255.5135297
0
ARC
8
DEFAULT_255_2_159
10
3.8310932
20
9.3219295
40
0.7018943
50
255.2449148
51
267.53181
0
ARC
8
DEFAULT_255_2_159
10
3.8464153
20
9.5377114
40
0.9181555
50
267.1564327
51
270.0290996
0
ARC
8
DEFAULT_255_2_159
10
3.8512854
20
9.4599671
40
0.8404227
50
269.6997725
51
278.1660133
0
ARC
8
DEFAULT_255_2_159
10
3.896089
20
9.1571454
40
0.5343089
50
278.0227512
51
290.6257262
0
ARC
8
DEFAULT_255_2_159
10
3.9569318
20
8.9948544
40
0.360988
50
290.6615954
51
307.0372597
0
ARC
8
DEFAULT_255_2_159
10
4.0094931
20
8.9303746
40
0.2778753
50
306.3942735
51
355.3031518
0
ARC
8
DEFAULT_255_2_159
10
3.9199191
20
8.9437796
40
0.3682954
50
354.3657517
51
0.0701493
0
ARC
8
DEFAULT_255_2_159
10
3.9447947
20
8.9477199
40
0.3434372
50
359.4178446
51
16.1971971
0
ARC
8
DEFAULT_255_2_159
10
4.0244685
20
8.969559
40
0.2608369
50
16.4722884
51
52.6260562
0
ARC
8
DEFAULT_255_2_159
10
3.8808062
20
8.7798668
40
0.4987896
50
52.7384873
51
62.4977471
0
ARC
8
DEFAULT_255_2_159
10
3.6384725
20
8.3238416
40
1.0151956
50
62.2514922
51
68.1222818
0
ARC
8
DEFAULT_255_2_159
10
3.3374806
20
7.5841322
40
1.8137935
50
68.0060578
51
71.8053552
0
ARC
8
DEFAULT_255_2_159
10
3.0232124
20
6.6416506
40
2.8072844
50
71.7182276
51
73.9257859
0
LINE
8
DEFAULT_255_2_159
10
5.1947729
20
10.4734336
11
5.1947729
21
8.427
0
LINE
8
DEFAULT_255_2_159
10
5.1947729
20
8.427
11
4.9249136
21
8.427
0
LINE
8
DEFAULT_255_2_159
10
4.9249136
20
8.427
11
4.9249136
21
10.4734336
0
LINE
8
DEFAULT_255_2_159
10
4.9249136
20
10.4734336
11
5.1947729
21
10.4734336
0
LINE
8
DEFAULT_255_2_159
10
7.199041
20
9.4460002
11
7.199041
21
8.6954539
0
LINE
8
DEFAULT_255_2_159
10
5.6220503
20
9.3518306
11
5.6220503
21
9.5303313
0
LINE
8
DEFAULT_255_2_159
10
7.199041
20
9.8732776
11
6.9291816
21
9.8732776
0
LINE
8
DEFAULT_255_2_159
10
5.8933152
20
9.5373589
11
5.8933152
21
9.3701023
0
LINE
8
DEFAULT_255_2_159
10
6.9305872
20
8.7671353
11
6.9305872
21
9.2267395
0
LINE
8
DEFAULT_255_2_159
10
6.9305872
20
9.2267395
11
6.4569277
21
9.2267395
0
LINE
8
DEFAULT_255_2_159
10
6.4569277
20
9.2267395
11
6.4569277
21
9.4460002
0
LINE
8
DEFAULT_255_2_159
10
6.4569277
20
9.4460002
11
7.199041
21
9.4460002
0
ARC
8
DEFAULT_255_2_159
10
6.7035422
20
9.0442781
40
0.6059682
50
295.8438239
51
324.8549911
0
ARC
8
DEFAULT_255_2_159
10
6.6307999
20
9.1759386
40
0.7562136
50
291.5691205
51
296.455545
0
ARC
8
DEFAULT_255_2_159
10
6.5413604
20
9.4148918
40
1.0113246
50
278.6622676
51
291.304642
0
ARC
8
DEFAULT_255_2_159
10
6.4819461
20
9.7908264
40
1.3919208
50
270.0200628
51
278.7494136
0
ARC
8
DEFAULT_255_2_159
10
6.4751598
20
10.073141
40
1.6742513
50
270.0013564
51
270.2489199
0
ARC
8
DEFAULT_255_2_159
10
6.4685831
20
9.3066229
40
0.9077574
50
253.5785812
51
270.4176139
0
ARC
8
DEFAULT_255_2_159
10
6.4382479
20
9.1891441
40
0.7865056
50
238.8203684
51
253.2789163
0
ARC
8
DEFAULT_255_2_159
10
6.4348172
20
9.180222
40
0.7770981
50
206.7883932
51
238.6962059
0
ARC
8
DEFAULT_255_2_159
10
6.5703613
20
9.2615105
40
0.9348023
50
206.1132138
51
207.4917444
0
ARC
8
DEFAULT_255_2_159
10
6.674708
20
9.3059142
40
1.0480596
50
188.692172
51
205.7821071
0
ARC
8
DEFAULT_255_2_159
10
6.9995808
20
9.3611664
40
1.3775621
50
180.3883025
51
188.9218026
0
ARC
8
DEFAULT_255_2_159
10
7.214413
20
9.5402281
40
1.5923935
50
170.2024118
51
180.3560972
0
ARC
8
DEFAULT_255_2_159
10
6.6608173
20
9.6392369
40
1.0300294
50
154.2856561
51
170.3893446
0
ARC
8
DEFAULT_255_2_159
10
6.4365126
20
9.7419102
40
0.7834046
50
139.8401442
51
153.9333506
0
ARC
8
DEFAULT_255_2_159
10
6.373648
20
9.7922391
40
0.7029052
50
98.419084
51
139.670677
0
ARC
8
DEFAULT_255_2_159
10
6.4400598
20
9.4693587
40
1.0321939
50
89.7658471
51
99.4417408
0
ARC
8
DEFAULT_255_2_159
10
6.451481
20
9.4807978
40
1.0207715
50
78.0552252
51
90.4043017
0
ARC
8
DEFAULT_255_2_159
10
6.5222664
20
9.799076
40
0.6947426
50
54.6380669
51
78.3339015
0
ARC
8
DEFAULT_255_2_159
10
6.5556539
20
9.8552659
40
0.6296185
50
50.0310925
51
54.1565398
0
ARC
8
DEFAULT_255_2_159
10
6.5367646
20
9.8382985
40
0.6547658
50
18.1091557
51
49.7180634
0
ARC
8
DEFAULT_255_2_159
10
6.2818249
20
9.7449041
40
0.9261561
50
7.9673591
51
18.6984667
0
ARC
8
DEFAULT_255_2_159
10
6.3081719
20
9.7665062
40
0.6301216
50
9.755592
51
27.3216766
0
ARC
8
DEFAULT_255_2_159
10
6.5054662
20
9.8650973
40
0.4095956
50
27.7361066
51
84.5258137
0
ARC
8
DEFAULT_255_2_159
10
6.4481343
20
9.5775174
40
0.7019591
50
82.1061176
51
90.2000309
0
ARC
8
DEFAULT_255_2_159
10
6.4394224
20
9.6663612
40
0.613143
50
89.4149083
51
105.5823944
0
ARC
8
DEFAULT_255_2_159
10
6.3944485
20
9.8300916
40
0.4433498
50
105.6678116
51
144.2649667
0
ARC
8
DEFAULT_255_2_159
10
6.5507599
20
9.7188685
40
0.6351911
50
144.3559819
51
162.8564157
0
ARC
8
DEFAULT_255_2_159
10
6.9154709
20
9.6017411
40
1.0182325
50
162.6077912
51
173.6778715
0
ARC
8
DEFAULT_255_2_159
10
7.4511828
20
9.5366239
40
1.5578677
50
173.4671476
51
179.9729699
0
ARC
8
DEFAULT_255_2_159
10
7.1171844
20
9.362745
40
1.2238913
50
179.6555717
51
190.0079353
0
ARC
8
DEFAULT_255_2_159
10
6.7118661
20
9.2883959
40
0.8118244
50
189.811752
51
206.6795842
0
ARC
8
DEFAULT_255_2_159
10
6.5639872
20
9.2194512
40
0.6487513
50
207.1029345
51
217.7077039
0
ARC
8
DEFAULT_255_2_159
10
6.4530119
20
9.1228803
40
0.5019606
50
216.7345728
51
265.6811656
0
ARC
8
DEFAULT_255_2_159
10
6.4759007
20
9.2811777
40
0.6616221
50
264.7369337
51
270.0609905
0
ARC
8
DEFAULT_255_2_159
10
6.4799684
20
9.7782028
40
1.1586518
50
269.8336779
51
276.0538148
0
ARC
8
DEFAULT_255_2_159
10
6.5161965
20
9.4453861
40
0.8238709
50
275.9893899
51
284.4615893
0
ARC
8
DEFAULT_255_2_159
10
6.5508394
20
9.2996814
40
0.6741374
50
284.7031129
51
286.4949545
0
ARC
8
DEFAULT_255_2_159
10
6.6220721
20
9.070274
40
0.4339577
50
286.0770426
51
304.2626816
0
ARC
8
DEFAULT_255_2_159
10
6.6454259
20
9.0320538
40
0.3892283
50
304.5889324
51
317.1075031
0
LINE
8
DEFAULT_255_2_159
10
9.2215808
20
10.4734336
11
9.2215808
21
8.427
0
LINE
8
DEFAULT_255_2_159
10
9.2215808
20
8.427
11
8.9503159
21
8.427
0
LINE
8
DEFAULT_255_2_159
10
8.9503159
20
8.427
11
7.9200715
21
10.0039907
0
LINE
8
DEFAULT_255_2_159
10
7.9200715
20
10.0039907
11
7.9200715
21
8.427
0
LINE
8
DEFAULT_255_2_159
10
7.9200715
20
8.427
11
7.6488066
21
8.427
0
LINE
8
DEFAULT_255_2_159
10
7.6488066
20
8.427
11
7.6488066
21
10.4734336
0
LINE
8
DEFAULT_255_2_159
10
7.6488066
20
10.4734336
11
7.9200715
21
10.4734336
0
LINE
8
DEFAULT_255_2_159
10
7.9200715
20
10.4734336
11
8.953127
21
8.8894153
0
LINE
8
DEFAULT_255_2_159
10
8.953127
20
8.8894153
11
8.953127
21
10.4734336
0
LINE
8
DEFAULT_255_2_159
10
8.953127
20
10.4734336
11
9.2215808
21
10.4734336
0
LINE
8
DEFAULT_255_2_159
10
11.0515647
20
8.427
11
10.8561978
21
8.9610967
0
LINE
8
DEFAULT_255_2_159
10
10.8561978
20
8.9610967
11
9.998832
21
8.9610967
0
LINE
8
DEFAULT_255_2_159
10
9.998832
20
8.9610967
11
9.8062761
21
8.427
0
LINE
8
DEFAULT_255_2_159
10
9.8062761
20
8.427
11
9.5279836
21
8.427
0
LINE
8
DEFAULT_255_2_159
10
9.5279836
20
8.427
11
10.3094514
21
10.4734336
0
LINE
8
DEFAULT_255_2_159
10
10.3094514
20
10.4734336
11
10.5455784
21
10.4734336
0
LINE
8
DEFAULT_255_2_159
10
10.5455784
20
10.4734336
11
11.3284517
21
8.427
0
LINE
8
DEFAULT_255_2_159
10
11.3284517
20
8.427
11
11.0515647
21
8.427
0
LINE
8
DEFAULT_255_2_159
10
10.4275149
20
10.1403259
11
10.0803521
21
9.1831685
0
LINE
8
DEFAULT_255_2_159
10
10.0803521
20
9.1831685
11
10.7760833
21
9.1831685
0
LINE
8
DEFAULT_255_2_159
10
10.7760833
20
9.1831685
11
10.4275149
21
10.1403259
0
LINE
8
DEFAULT_255_2_159
10
11.875198
20
10.4734336
11
11.875198
21
8.6476663
0
LINE
8
DEFAULT_255_2_159
10
11.875198
20
8.6476663
11
12.8450051
21
8.6476663
0
LINE
8
DEFAULT_255_2_159
10
12.8450051
20
8.6476663
11
12.8450051
21
8.427
0
LINE
8
DEFAULT_255_2_159
10
12.8450051
20
8.427
11
11.6039331
21
8.427
0
LINE
8
DEFAULT_255_2_159
10
11.6039331
20
8.427
11
11.6039331
21
10.4734336
0
LINE
8
DEFAULT_255_2_159
10
11.6039331
20
10.4734336
11
11.875198
21
10.4734336
0
LINE
8
DEFAULT_255_2_159
10
5.4309769
20
5.2663491
11
5.7022418
21
5.2663491
0
LINE
8
DEFAULT_255_2_159
10
4.1266566
20
5.5446416
11
4.1266566
21
5.7414141
0
LINE
8
DEFAULT_255_2_159
10
5.7022418
20
6.0056514
11
5.4309769
21
6.0056514
0
LINE
8
DEFAULT_255_2_159
10
4.3979215
20
5.7343865
11
4.3979215
21
5.5362085
0
ARC
8
DEFAULT_255_2_159
10
4.7431522
20
5.3708555
40
0.9647666
50
340.1774535
51
353.7813462
0
ARC
8
DEFAULT_255_2_159
10
5.0181373
20
5.2684357
40
0.6713507
50
311.4559604
51
340.4421471
0
ARC
8
DEFAULT_255_2_159
10
5.0123057
20
5.2878504
40
0.6898141
50
282.433344
51
310.7513676
0
ARC
8
DEFAULT_255_2_159
10
4.9354363
20
5.6054944
40
1.0165807
50
269.9359144
51
282.8096479
0
ARC
8
DEFAULT_255_2_159
10
4.9264053
20
5.84527
40
1.2563805
50
269.9995812
51
270.3599999
0
ARC
8
DEFAULT_255_2_159
10
4.9171478
20
5.4054595
40
0.8166222
50
250.7885115
51
270.6488895
0
ARC
8
DEFAULT_255_2_159
10
4.8877206
20
5.2939411
40
0.7016875
50
219.3628526
51
250.0611702
0
ARC
8
DEFAULT_255_2_159
10
5.0328308
20
5.4172633
40
0.8920993
50
193.5480248
51
219.5756205
0
ARC
8
DEFAULT_255_2_159
10
5.4478743
20
5.5250403
40
1.3208631
50
181.1219845
51
193.8755137
0
ARC
8
DEFAULT_255_2_159
10
5.8100644
20
5.5444095
40
1.6834079
50
179.9921009
51
181.5397231
0
ARC
8
DEFAULT_255_2_159
10
5.4862407
20
5.7479556
40
1.3595999
50
169.5837358
51
180.275671
0
ARC
8
DEFAULT_255_2_159
10
5.1647482
20
5.8073589
40
1.0326655
50
155.0366267
51
169.6003301
0
ARC
8
DEFAULT_255_2_159
10
4.966035
20
5.9031584
40
0.8120909
50
136.7831724
51
155.2472308
0
ARC
8
DEFAULT_255_2_159
10
4.8978586
20
5.9610735
40
0.722762
50
121.7631135
51
136.4281903
0
ARC
8
DEFAULT_255_2_159
10
4.9214873
20
5.917425
40
0.7723171
50
95.6460412
51
121.5489294
0
ARC
8
DEFAULT_255_2_159
10
4.9490144
20
5.7234246
40
0.9681201
50
89.9245125
51
96.1376943
0
ARC
8
DEFAULT_255_2_159
10
4.9578355
20
5.7442491
40
0.9473249
50
76.6778454
51
90.4563741
0
ARC
8
DEFAULT_255_2_159
10
5.0267189
20
6.0225859
40
0.6606119
50
47.4858031
51
76.9288229
0
ARC
8
DEFAULT_255_2_159
10
5.0009905
20
6.0050932
40
0.6909294
50
16.5423465
51
46.8934086
0
ARC
8
DEFAULT_255_2_159
10
4.7196121
20
5.9126392
40
0.987022
50
5.4073007
51
17.0364742
0
ARC
8
DEFAULT_255_2_159
10
4.4678626
20
5.8721985
40
0.9723163
50
7.8888933
51
15.9241068
0
ARC
8
DEFAULT_255_2_159
10
4.8155287
20
5.9731517
40
0.6102958
50
15.7652409
51
27.9410474
0
ARC
8
DEFAULT_255_2_159
10
5.0087556
20
6.0765981
40
0.3911232
50
27.8167132
51
46.4007072
0
ARC
8
DEFAULT_255_2_159
10
5.0174451
20
6.0755998
40
0.3859168
50
47.437239
51
75.0697434
0
ARC
8
DEFAULT_255_2_159
10
4.9634438
20
5.8876097
40
0.5814856
50
74.700848
51
87.812647
0
ARC
8
DEFAULT_255_2_159
10
4.9506153
20
5.7031161
40
0.7663562
50
87.38069
51
90.024331
0
ARC
8
DEFAULT_255_2_159
10
4.9438836
20
5.9088601
40
0.5606487
50
89.3452876
51
108.57442
0
ARC
8
DEFAULT_255_2_159
10
4.9199267
20
5.9987477
40
0.4678496
50
109.2998699
51
143.3037498
0
ARC
8
DEFAULT_255_2_159
10
5.0532809
20
5.8961991
40
0.6360602
50
143.0752909
51
163.1918493
0
ARC
8
DEFAULT_255_2_159
10
5.3948303
20
5.7884146
40
0.9941958
50
162.9374351
51
174.6209239
0
ARC
8
DEFAULT_255_2_159
10
5.854434
20
5.7380194
40
1.4565171
50
174.3421025
51
180.1429087
0
ARC
8
DEFAULT_255_2_159
10
5.6914709
20
5.5290224
40
1.2935694
50
179.6817071
51
189.150561
0
ARC
8
DEFAULT_255_2_159
10
5.2538519
20
5.4561333
40
0.8499315
50
188.9909787
51
203.5773592
0
ARC
8
DEFAULT_255_2_159
10
5.0649315
20
5.3777462
40
0.6454389
50
203.9077886
51
215.1311531
0
ARC
8
DEFAULT_255_2_159
10
4.9034206
20
5.2525745
40
0.44142
50
213.9072485
51
263.8848319
0
ARC
8
DEFAULT_255_2_159
10
4.925352
20
5.3898592
40
0.5803042
50
263.1757013
51
270.1030913
0
ARC
8
DEFAULT_255_2_159
10
4.9309657
20
5.6080939
40
0.798551
50
269.6721291
51
279.0607016
0
ARC
8
DEFAULT_255_2_159
10
4.9776484
20
5.3258932
40
0.5125228
50
278.8752428
51
293.6347782
0
ARC
8
DEFAULT_255_2_159
10
5.0336899
20
5.1942857
40
0.36949
50
293.8551919
51
310.0520817
0
ARC
8
DEFAULT_255_2_159
10
5.0345428
20
5.183369
40
0.3606411
50
311.0644393
51
332.0111752
0
ARC
8
DEFAULT_255_2_159
10
4.8258909
20
5.2984306
40
0.5988986
50
331.658759
51
343.2877435
0
ARC
8
DEFAULT_255_2_159
10
4.4649151
20
5.4093573
40
0.9765289
50
343.1447478
51
351.0103276
0
ARC
8
DEFAULT_255_2_159
10
4.1898293
20
5.4594122
40
1.2560736
50
350.7158337
51
351.1583822
0
LINE
8
DEFAULT_255_2_159
10
7.6446671
20
5.7034651
11
7.6446671
21
5.5741575
0
LINE
8
DEFAULT_255_2_159
10
5.998806
20
5.5558857
11
5.998806
21
5.7034651
0
LINE
8
DEFAULT_255_2_159
10
7.3762132
20
5.5544802
11
7.3762132
21
5.7062761
0
LINE
8
DEFAULT_255_2_159
10
6.2672599
20
5.7245479
11
6.2672599
21
5.5741575
0
ARC
8
DEFAULT_255_2_159
10
6.1323418
20
5.5672289
40
1.5123412
50
350.4877921
51
0.2624948
0
ARC
8
DEFAULT_255_2_159
10
6.533684
20
5.4981987
40
1.105111
50
336.0276383
51
350.5788378
0
ARC
8
DEFAULT_255_2_159
10
6.7690248
20
5.3918488
40
0.8468622
50
319.8875412
51
336.1330695
0
ARC
8
DEFAULT_255_2_159
10
6.8744678
20
5.3074552
40
0.7118554
50
302.4806184
51
319.6144337
0
ARC
8
DEFAULT_255_2_159
10
6.8543427
20
5.3462398
40
0.7553903
50
275.8195737
51
302.188528
0
ARC
8
DEFAULT_255_2_159
10
6.8252309
20
5.546173
40
0.9572843
50
269.9170384
51
276.3396539
0
ARC
8
DEFAULT_255_2_159
10
6.8173921
20
5.4261281
40
0.8372633
50
252.5220082
51
270.4415812
0
ARC
8
DEFAULT_255_2_159
10
6.7922305
20
5.3317701
40
0.7397175
50
237.5350178
51
252.1858812
0
ARC
8
DEFAULT_255_2_159
10
6.8078471
20
5.3516952
40
0.7649155
50
209.0633278
51
237.3492167
0
ARC
8
DEFAULT_255_2_159
10
6.9601975
20
5.4473683
40
0.9446071
50
205.118822
51
209.6467291
0
ARC
8
DEFAULT_255_2_159
10
7.0995511
20
5.5064746
40
1.0958867
50
188.7216107
51
204.8240181
0
ARC
8
DEFAULT_255_2_159
10
7.449046
20
5.5653081
40
1.4502707
50
180.3722499
51
188.9253878
0
ARC
8
DEFAULT_255_2_159
10
7.4443327
20
5.7104409
40
1.4455435
50
169.5253335
51
180.2764936
0
ARC
8
DEFAULT_255_2_159
10
7.1114054
20
5.7716696
40
1.1070329
50
155.8315341
51
169.5088742
0
ARC
8
DEFAULT_255_2_159
10
6.8873061
20
5.8756329
40
0.8600177
50
139.6257454
51
156.0380269
0
ARC
8
DEFAULT_255_2_159
10
6.7841183
20
5.9586622
40
0.7276306
50
122.6415102
51
139.3431709
0
ARC
8
DEFAULT_255_2_159
10
6.801734
20
5.926566
40
0.7641632
50
93.0224293
51
122.4556695
0
ARC
8
DEFAULT_255_2_159
10
6.8206373
20
5.7575222
40
0.9340217
50
89.9756789
51
93.6336562
0
ARC
8
DEFAULT_255_2_159
10
6.827418
20
5.8274871
40
0.8640805
50
73.7463431
51
90.4233307
0
ARC
8
DEFAULT_255_2_159
10
6.8581381
20
5.9464765
40
0.7412582
50
57.6629741
51
73.4517125
0
ARC
8
DEFAULT_255_2_159
10
6.8567434
20
5.9502593
40
0.738815
50
29.1440662
51
57.4146702
0
ARC
8
DEFAULT_255_2_159
10
6.6931286
20
5.8480777
40
0.9315283
50
24.09844
51
29.732311
0
ARC
8
DEFAULT_255_2_159
10
6.5122568
20
5.7730891
40
1.1272674
50
8.665526
51
23.8240763
0
ARC
8
DEFAULT_255_2_159
10
6.1212422
20
5.7092927
40
1.5234361
50
359.7808264
51
8.8218134
0
ARC
8
DEFAULT_255_2_159
10
5.9205623
20
5.7137605
40
1.4556702
50
359.7054123
51
8.0359402
0
ARC
8
DEFAULT_255_2_159
10
6.445553
20
5.7902141
40
0.9251495
50
7.8927391
51
20.296264
0
ARC
8
DEFAULT_255_2_159
10
6.7303568
20
5.8952349
40
0.6215997
50
20.3230903
51
36.4991753
0
ARC
8
DEFAULT_255_2_159
10
6.8503276
20
5.9876351
40
0.4702078
50
36.1436843
51
85.6627235
0
ARC
8
DEFAULT_255_2_159
10
6.8218967
20
5.805586
40
0.6540481
50
84.3852436
51
90.075591
0
ARC
8
DEFAULT_255_2_159
10
6.8144904
20
5.9212169
40
0.5384564
50
89.303721
51
109.904604
0
ARC
8
DEFAULT_255_2_159
10
6.7982863
20
5.9880994
40
0.470113
50
110.8229052
51
143.9179391
0
ARC
8
DEFAULT_255_2_159
10
6.9616757
20
5.8633572
40
0.6756418
50
143.529006
51
163.2980384
0
ARC
8
DEFAULT_255_2_159
10
7.2955595
20
5.758391
40
1.0256168
50
163.0420681
51
174.313878
0
ARC
8
DEFAULT_255_2_159
10
7.7162987
20
5.7098178
40
1.4491136
50
174.0510276
51
179.4175861
0
ARC
8
DEFAULT_255_2_159
10
7.6279407
20
5.566864
40
1.3607004
50
179.6928878
51
188.7908869
0
ARC
8
DEFAULT_255_2_159
10
7.161874
20
5.4923098
40
0.8887181
50
188.6329329
51
202.56307
0
ARC
8
DEFAULT_255_2_159
10
6.9423798
20
5.4041304
40
0.652196
50
202.8081755
51
216.1193679
0
ARC
8
DEFAULT_255_2_159
10
6.8007302
20
5.2901503
40
0.4706631
50
215.0755696
51
264.6380119
0
ARC
8
DEFAULT_255_2_159
10
6.8229492
20
5.4356081
40
0.6176197
50
263.8467584
51
270.083085
0
ARC
8
DEFAULT_255_2_159
10
6.8301911
20
5.3903652
40
0.5724114
50
269.3647574
51
287.515184
0
ARC
8
DEFAULT_255_2_159
10
6.8613687
20
5.2771208
40
0.4550549
50
288.0628645
51
323.8115129
0
ARC
8
DEFAULT_255_2_159
10
6.7089242
20
5.3908349
40
0.6452337
50
323.6546628
51
342.6591759
0
ARC
8
DEFAULT_255_2_159
10
6.3534439
20
5.506491
40
1.0190386
50
342.4091559
51
353.6451893
0
ARC
8
DEFAULT_255_2_159
10
5.8578819
20
5.5681396
40
1.5183928
50
353.402991
51
359.4845616
0
LINE
8
DEFAULT_255_2_159
10
9.6222303
20
6.6634336
11
9.6222303
21
4.617
0
LINE
8
DEFAULT_255_2_159
10
9.6222303
20
4.617
11
9.3509654
21
4.617
0
LINE
8
DEFAULT_255_2_159
10
9.3509654
20
4.617
11
8.320721
21
6.1939907
0
LINE
8
DEFAULT_255_2_159
10
8.320721
20
6.1939907
11
8.320721
21
4.617
0
LINE
8
DEFAULT_255_2_159
10
8.320721
20
4.617
11
8.0494562
21
4.617
0
LINE
8
DEFAULT_255_2_159
10
8.0494562
20
4.617
11
8.0494562
21
6.6634336
0
LINE
8
DEFAULT_255_2_159
10
8.0494562
20
6.6634336
11
8.320721
21
6.6634336
0
LINE
8
DEFAULT_255_2_159
10
8.320721
20
6.6634336
11
9.3537765
21
5.0794153
0
LINE
8
DEFAULT_255_2_159
10
9.3537765
20
5.0794153
11
9.3537765
21
6.6634336
0
LINE
8
DEFAULT_255_2_159
10
9.3537765
20
6.6634336
11
9.6222303
21
6.6634336
0
LINE
8
DEFAULT_255_2_159
10
11.674286
20
6.6634336
11
11.674286
21
4.617
0
LINE
8
DEFAULT_255_2_159
10
11.674286
20
4.617
11
11.4030211
21
4.617
0
LINE
8
DEFAULT_255_2_159
10
11.4030211
20
4.617
11
10.3727767
21
6.1939907
0
LINE
8
DEFAULT_255_2_159
10
10.3727767
20
6.1939907
11
10.3727767
21
4.617
0
LINE
8
DEFAULT_255_2_159
10
10.3727767
20
4.617
11
10.1015118
21
4.617
0
LINE
8
DEFAULT_255_2_159
10
10.1015118
20
4.617
11
10.1015118
21
6.6634336
0
LINE
8
DEFAULT_255_2_159
10
10.1015118
20
6.6634336
11
10.3727767
21
6.6634336
0
LINE
8
DEFAULT_255_2_159
10
10.3727767
20
6.6634336
11
11.4058321
21
5.0794153
0
LINE
8
DEFAULT_255_2_159
10
11.4058321
20
5.0794153
11
11.4058321
21
6.6634336
0
LINE
8
DEFAULT_255_2_159
10
11.4058321
20
6.6634336
11
11.674286
21
6.6634336
0
LINE
8
DEFAULT_255_2_778
10
0.5292002
20
3.4396
11
16.4042002
21
3.4396
0
LINE
8
DEFAULT_255_2_778
10
5.8208335
20
3.4396333
11
5.8208335
21
-1.5874667
0
LINE
8
DEFAULT_255_2_778
10
11.1125335
20
3.4396333
11
11.1125335
21
-1.8520667
0
LINE
8
DEFAULT_255_2_778
10
1.5875335
20
2.3813333
11
4.7625335
21
2.3813333
0
LINE
8
DEFAULT_255_2_778
10
1.5875335
20
1.3229333
11
4.7625335
21
1.3229333
0
LINE
8
DEFAULT_255_2_778
10
1.5875335
20
0.2646333
11
4.7625335
21
0.2646333
0
LINE
8
DEFAULT_255_2_778
10
1.5875335
20
-0.7936667
11
4.7625335
21
-0.7936667
0
LINE
8
DEFAULT_255_2_778
10
6.8792335
20
2.3813333
11
10.0542335
21
2.3813333
0
LINE
8
DEFAULT_255_2_778
10
6.8792335
20
1.3229333
11
10.0542335
21
1.3229333
0
LINE
8
DEFAULT_255_2_778
10
6.8792335
20
0.2646333
11
10.0542335
21
0.2646333
0
LINE
8
DEFAULT_255_2_778
10
6.8792335
20
-0.7936667
11
10.0542335
21
-0.7936667
0
LINE
8
DEFAULT_255_2_778
10
12.1708335
20
2.3813333
11
15.3458335
21
2.3813333
0
LINE
8
DEFAULT_255_2_778
10
12.1708335
20
1.3229333
11
15.3458335
21
1.3229333
0
LINE
8
DEFAULT_255_2_778
10
12.1708335
20
0.2646333
11
15.3458335
21
0.2646333
0
LINE
8
DEFAULT_255_2_778
10
12.1708335
20
-0.7936667
11
15.3458335
21
-0.7936667
0
ENDSEC
0
EOF