0
SECTION
2
HEADER
9
$MEASUREMENT
70
1
0
ENDSEC
0
SECTION
2
TABLES
0
TABLE
2
LTYPE
0
LTYPE
72
65
70
64
2
CONTINUOUS
3
______
73
0
40
0
0
ENDTAB
0
TABLE
2
LAYER
0
LAYER
2
DEFAULT_255_2_778
70
0
62
255
6
CONTINUOUS
0
ENDTAB
0
ENDSEC
0
SECTION
2
ENTITIES
0
LINE
8
DEFAULT_255_2_778
10
11.2447835
20
10.5024583
11
15.8188835
21
15.0765583
0
LINE
8
DEFAULT_255_2_778
10
15.8188835
20
15.0765583
11
6.6706835
21
15.0765583
0
LINE
8
DEFAULT_255_2_778
10
6.6706835
20
15.0765583
11
11.2447835
21
10.5024583
0
LINE
8
DEFAULT_255_2_778
10
1.2419065
20
20.5052092
11
5.8494065
21
15.8977092
0
LINE
8
DEFAULT_255_2_778
10
5.8494065
20
15.8977092
11
15.8646065
21
15.8977092
0
LINE
8
DEFAULT_255_2_778
10
15.8646065
20
15.8977092
11
11.2572065
21
20.5052092
0
LINE
8
DEFAULT_255_2_778
10
11.2572065
20
20.5052092
11
1.2419065
21
20.5052092
0
LINE
8
DEFAULT_255_2_778
10
16.8327065
20
14.9296092
11
21.8175065
21
9.9449092
0
LINE
8
DEFAULT_255_2_778
10
21.8175065
20
9.9449092
11
16.8100065
21
4.9374092
0
LINE
8
DEFAULT_255_2_778
10
16.8100065
20
4.9374092
11
11.8252065
21
9.9221092
0
LINE
8
DEFAULT_255_2_778
10
11.8252065
20
9.9221092
11
16.8327065
21
14.9296092
0
LINE
8
DEFAULT_255_2_778
10
21.828147
20
11.095353
11
21.828147
21
20.505253
0
LINE
8
DEFAULT_255_2_778
10
21.828147
20
20.505253
11
12.418247
21
20.505253
0
LINE
8
DEFAULT_255_2_778
10
12.418247
20
20.505253
11
21.828147
21
11.095353
0
LINE
8
DEFAULT_255_2_778
10
10.6642814
20
9.9219372
11
0.6614814
21
19.9247372
0
LINE
8
DEFAULT_255_2_778
10
0.6614814
20
19.9247372
11
0.6614814
21
-0.0809628
0
LINE
8
DEFAULT_255_2_778
10
0.6614814
20
-0.0809628
11
10.6642814
21
9.9219372
0
LINE
8
DEFAULT_255_2_778
10
17.3908365
20
4.3564593
11
21.8281365
21
-0.0811407
0
LINE
8
DEFAULT_255_2_778
10
21.8281365
20
-0.0811407
11
21.8281365
21
8.7937593
0
LINE
8
DEFAULT_255_2_778
10
21.8281365
20
8.7937593
11
17.3908365
21
4.3564593
0
LINE
8
DEFAULT_255_2_778
10
11.2447951
20
9.3414186
11
1.2421951
21
-0.6613814
0
LINE
8
DEFAULT_255_2_778
10
1.2421951
20
-0.6613814
11
21.2475951
21
-0.6613814
0
LINE
8
DEFAULT_255_2_778
10
21.2475951
20
-0.6613814
11
11.2447951
21
9.3414186
0
ENDSEC
0
EOF