0
SECTION
2
HEADER
9
$MEASUREMENT
70
1
0
ENDSEC
0
SECTION
2
TABLES
0
TABLE
2
LTYPE
0
LTYPE
72
65
70
64
2
CONTINUOUS
3
______
73
0
40
0
0
ENDTAB
0
TABLE
2
LAYER
0
LAYER
2
DEFAULT_255_2_778
70
0
62
255
6
CONTINUOUS
0
ENDTAB
0
ENDSEC
0
SECTION
2
ENTITIES
0
ARC
8
DEFAULT_255_2_778
10
2.009717
20
14.1319042
40
1.6128117
50
152.9778124
51
180.1141339
0
ARC
8
DEFAULT_255_2_778
10
2.0070792
20
14.1322285
40
1.6103147
50
99.1384576
51
152.9454509
0
ARC
8
DEFAULT_255_2_778
10
2.01023
20
14.1044469
40
1.6382448
50
89.976268
51
99.0929396
0
ARC
8
DEFAULT_255_2_778
10
14.9257213
20
14.129883
40
1.6128117
50
62.9778124
51
90.1141339
0
ARC
8
DEFAULT_255_2_778
10
14.9260456
20
14.1325208
40
1.6103147
50
9.1384576
51
62.9454509
0
ARC
8
DEFAULT_255_2_778
10
14.898264
20
14.12937
40
1.6382448
50
359.976268
51
9.0929396
0
ARC
8
DEFAULT_255_2_778
10
14.9237001
20
1.2138787
40
1.6128117
50
332.9778124
51
0.1141339
0
ARC
8
DEFAULT_255_2_778
10
14.9263379
20
1.2135544
40
1.6103147
50
279.1384576
51
332.9454509
0
ARC
8
DEFAULT_255_2_778
10
14.9231871
20
1.241336
40
1.6382448
50
269.976268
51
279.0929396
0
ARC
8
DEFAULT_255_2_778
10
2.0076958
20
1.2158999
40
1.6128117
50
242.9778124
51
270.1141339
0
ARC
8
DEFAULT_255_2_778
10
2.0073715
20
1.2132621
40
1.6103147
50
189.1384576
51
242.9454509
0
ARC
8
DEFAULT_255_2_778
10
2.0351531
20
1.2164129
40
1.6382448
50
179.976268
51
189.0929396
0
LINE
8
DEFAULT_255_2_778
10
2.0109086
20
15.7426914
11
14.9225086
21
15.7426914
0
LINE
8
DEFAULT_255_2_778
10
16.5365086
20
14.1286914
11
16.5365086
21
1.2170914
0
LINE
8
DEFAULT_255_2_778
10
14.9225086
20
-0.3969086
11
2.0109086
21
-0.3969086
0
LINE
8
DEFAULT_255_2_778
10
0.3969086
20
1.2170914
11
0.3969086
21
14.1286914
0
LINE
8
DEFAULT_255_2_778
10
2.0109086
20
6.4625248
11
2.0112084
21
6.4625249
0
ARC
8
DEFAULT_255_2_778
10
2.0161974
20
7.269578
40
0.8070686
50
269.6458203
51
334.4432016
0
ARC
8
DEFAULT_255_2_778
10
1.9933405
20
7.2616639
40
0.8244501
50
335.6247384
51
0.1165996
0
ARC
8
DEFAULT_255_2_778
10
1.8752944
20
7.269451
40
0.9425144
50
359.6286137
51
359.9984109
0
ARC
8
DEFAULT_255_2_778
10
1.9894477
20
8.0834084
40
0.8283903
50
359.516977
51
23.6107708
0
ARC
8
DEFAULT_255_2_778
10
2.0180767
20
8.0789133
40
0.8041094
50
24.7213524
51
86.9539827
0
ARC
8
DEFAULT_255_2_778
10
2.0108552
20
8.0716758
40
0.811749
50
86.472128
51
89.9750667
0
LINE
8
DEFAULT_255_2_778
10
2.0112084
20
8.8834248
11
2.0109086
21
8.8834248
0
ARC
8
DEFAULT_255_2_778
10
2.6187467
20
8.6844785
40
1.0059495
50
51.1879157
51
90.1445638
0
ARC
8
DEFAULT_255_2_778
10
2.6198899
20
8.6846393
40
1.0051081
50
3.2229798
51
51.2329522
0
ARC
8
DEFAULT_255_2_778
10
2.5915637
20
8.6818899
40
1.0335449
50
359.9963943
51
3.2868702
0
ARC
8
DEFAULT_255_2_778
10
3.3488052
20
9.7949251
40
2.0282089
50
277.8297645
51
284.7090053
0
ARC
8
DEFAULT_255_2_778
10
3.4253732
20
9.5033047
40
1.7267041
50
284.7085599
51
293.4016694
0
ARC
8
DEFAULT_255_2_778
10
3.4727286
20
9.3894718
40
1.6034274
50
293.4642554
51
305.387735
0
ARC
8
DEFAULT_255_2_778
10
3.0925286
20
9.8466681
40
2.1967986
50
306.5665279
51
326.1684267
0
ARC
8
DEFAULT_255_2_778
10
-0.634193
20
12.4733588
40
6.7557711
50
325.2603391
51
329.2250925
0
LINE
8
DEFAULT_255_2_778
10
5.1702579
20
9.0166561
11
5.1710084
21
9.0178933
0
LINE
8
DEFAULT_255_2_778
10
5.1710084
20
9.0178933
11
5.171756
21
9.0191258
0
LINE
8
DEFAULT_255_2_778
10
5.171756
20
9.0191258
11
5.1732454
21
9.0215818
0
LINE
8
DEFAULT_255_2_778
10
5.1732454
20
9.0215818
11
5.1739843
21
9.0228005
0
LINE
8
DEFAULT_255_2_778
10
5.1739843
20
9.0228005
11
5.1747203
21
9.0240146
0
LINE
8
DEFAULT_255_2_778
10
5.1747203
20
9.0240146
11
5.1761865
21
9.0264338
0
LINE
8
DEFAULT_255_2_778
10
5.1761865
20
9.0264338
11
5.1769139
21
9.0276342
0
LINE
8
DEFAULT_255_2_778
10
5.1769139
20
9.0276342
11
5.1776385
21
9.02883
0
LINE
8
DEFAULT_255_2_778
10
5.1776385
20
9.02883
11
5.1779994
21
9.0294257
0
LINE
8
DEFAULT_255_2_778
10
5.1779994
20
9.0294257
11
5.1794401
21
9.0318041
0
LINE
8
DEFAULT_255_2_778
10
5.1794401
20
9.0318041
11
5.1801548
21
9.0329843
0
LINE
8
DEFAULT_255_2_778
10
5.1801548
20
9.0329843
11
5.1808668
21
9.0341599
0
LINE
8
DEFAULT_255_2_778
10
5.1808668
20
9.0341599
11
5.181576
21
9.0353312
0
LINE
8
DEFAULT_255_2_778
10
5.181576
20
9.0353312
11
5.1822824
21
9.0364981
0
ARC
8
DEFAULT_255_2_778
10
28.5774926
20
-5.123814
40
27.3468517
50
148.8092357
51
148.8149299
0
LINE
8
DEFAULT_255_2_778
10
5.1836898
20
9.0388231
11
5.184388
21
9.0399767
0
LINE
8
DEFAULT_255_2_778
10
5.184388
20
9.0399767
11
5.1850835
21
9.041126
0
ARC
8
DEFAULT_255_2_778
10
13596.7972085
20
-8197.7195101
40
15877.116876
50
148.8753501
51
148.875972
0
ARC
8
DEFAULT_255_2_778
10
18.4179787
20
1.2515529
40
15.3543952
50
148.2231497
51
148.8736505
0
ARC
8
DEFAULT_255_2_778
10
9.592432
20
6.7777445
40
4.9418431
50
141.3431989
51
148.8052256
0
ARC
8
DEFAULT_255_2_778
10
7.9425034
20
8.0746772
40
2.8433331
50
130.9684326
51
140.9833466
0
ARC
8
DEFAULT_255_2_778
10
7.7069519
20
8.3345778
40
2.4926633
50
122.0717539
51
130.7970475
0
ARC
8
DEFAULT_255_2_778
10
7.7462569
20
8.267842
40
2.5700851
50
114.5832293
51
122.0242903
0
ARC
8
DEFAULT_255_2_778
10
7.8630376
20
8.0117267
40
2.8515681
50
108.4448912
51
114.5761533
0
ARC
8
DEFAULT_255_2_778
10
8.0003019
20
7.6000652
40
3.2855112
50
103.1332869
51
108.4443013
0
ARC
8
DEFAULT_255_2_778
10
8.1310168
20
7.0429253
40
3.8577792
50
98.7618005
51
103.1437461
0
ARC
8
DEFAULT_255_2_778
10
8.2409777
20
6.330146
40
4.5789907
50
94.8140515
51
98.7630799
0
ARC
8
DEFAULT_255_2_778
10
8.2322751
20
6.4910583
40
4.4179184
50
94.808911
51
94.8767201
0
ARC
8
DEFAULT_255_2_778
10
8.8673611
20
12.1139377
40
1.005456
50
141.1794253
51
180.1488931
0
ARC
8
DEFAULT_255_2_778
10
8.8676044
20
12.1145138
40
1.0052845
50
93.3126846
51
141.2136994
0
ARC
8
DEFAULT_255_2_778
10
8.870643
20
12.0847157
40
1.0352092
50
89.996372
51
93.3852789
0
ARC
8
DEFAULT_255_2_778
10
14.9250659
20
12.114116
40
1.0058121
50
50.8383167
51
90.1456797
0
ARC
8
DEFAULT_255_2_778
10
14.9259137
20
12.1139854
40
1.0053782
50
3.1925081
51
50.8804788
0
ARC
8
DEFAULT_255_2_778
10
14.8966028
20
12.1110868
40
1.0348058
50
359.9965679
51
3.2623693
0
ARC
8
DEFAULT_255_2_778
10
14.9254622
20
10.0910867
40
1.0059495
50
321.1879157
51
0.1445638
0
ARC
8
DEFAULT_255_2_778
10
14.925623
20
10.0899435
40
1.0051081
50
273.2229798
51
321.2329522
0
ARC
8
DEFAULT_255_2_778
10
14.9228736
20
10.1182697
40
1.0335449
50
269.9963943
51
273.2868702
0
ARC
8
DEFAULT_255_2_778
10
8.8676258
20
10.0902074
40
1.0054859
50
231.1785985
51
270.1471727
0
ARC
8
DEFAULT_255_2_778
10
8.8668883
20
10.0903864
40
1.0051633
50
183.2157256
51
231.2177488
0
ARC
8
DEFAULT_255_2_778
10
8.8956421
20
10.0932529
40
1.0340335
50
179.9960148
51
183.2849336
0
ARC
8
DEFAULT_255_2_778
10
7.8258752
20
7.6910271
40
2.5068524
50
89.1832633
51
89.8965217
0
ARC
8
DEFAULT_255_2_778
10
7.8259704
20
7.7421483
40
2.4557313
50
89.8965879
51
89.9999585
0
ARC
8
DEFAULT_255_2_778
10
7.820713
20
7.9791611
40
2.2187247
50
89.8641895
51
97.6539593
0
ARC
8
DEFAULT_255_2_778
10
7.7710268
20
8.3469949
40
1.8475504
50
97.64615
51
107.6697251
0
ARC
8
DEFAULT_255_2_778
10
7.721729
20
8.5080848
40
1.679098
50
107.7353617
51
121.1463705
0
ARC
8
DEFAULT_255_2_778
10
8.0550426
20
8.0635956
40
2.2325986
50
122.5673519
51
146.9683783
0
ARC
8
DEFAULT_255_2_778
10
10.8861611
20
6.0813224
40
5.687901
50
145.7732974
51
150.8650075
0
ARC
8
DEFAULT_255_2_778
10
23.4712768
20
-1.0748203
40
20.1651667
50
150.514357
51
151.1178327
0
ARC
8
DEFAULT_255_2_778
10
-23.6770574
20
24.9305903
40
33.6794877
50
330.7671488
51
331.1218923
0
ARC
8
DEFAULT_255_2_778
10
-0.5815215
20
11.9913605
40
7.2063555
50
328.6396468
51
330.8655822
0
ARC
8
DEFAULT_255_2_778
10
2.7536872
20
9.9556658
40
3.2989707
50
324.0329695
51
328.6847471
0
ARC
8
DEFAULT_255_2_778
10
3.8934764
20
9.1266824
40
1.889599
50
316.5312397
51
324.0790996
0
ARC
8
DEFAULT_255_2_778
10
4.3746991
20
8.6698766
40
1.2260883
50
305.5583603
51
316.5529758
0
ARC
8
DEFAULT_255_2_778
10
3.7375164
20
-2.3651565
40
10.1279839
50
80.3236009
51
82.3389182
0
ARC
8
DEFAULT_255_2_778
10
3.9121179
20
-1.3446929
40
9.0926911
50
77.9701479
51
80.3273472
0
ARC
8
DEFAULT_255_2_778
10
4.0958148
20
-0.4812205
40
8.209895
50
75.5697637
51
77.9680316
0
ARC
8
DEFAULT_255_2_778
10
4.2775363
20
0.2238788
40
7.481755
50
72.8268956
51
75.5718854
0
ARC
8
DEFAULT_255_2_778
10
4.4516535
20
0.7877703
40
6.8915937
50
69.8587566
51
72.8257327
0
ARC
8
DEFAULT_255_2_778
10
4.5929085
20
1.1743489
40
6.4800166
50
66.8232752
51
69.8543713
0
ARC
8
DEFAULT_255_2_778
10
4.6780042
20
1.3745867
40
6.262448
50
63.5728252
51
66.8179759
0
ARC
8
DEFAULT_255_2_778
10
4.6569816
20
1.335248
40
6.3070324
50
59.9606514
51
63.5608545
0
ARC
8
DEFAULT_255_2_778
10
4.3867433
20
0.8733077
40
6.842206
50
56.4277695
51
59.938079
0
ARC
8
DEFAULT_255_2_778
10
3.4756853
20
-0.4908241
40
8.4825913
50
53.4245428
51
56.3957832
0
ARC
8
DEFAULT_255_2_778
10
0.4183572
20
-4.6037681
40
13.607389
50
51.6204259
51
53.4058804
0
ARC
8
DEFAULT_255_2_778
10
-13.1204694
20
-21.7554208
40
35.4586712
50
51.2463078
51
51.6780006
0
ARC
8
DEFAULT_255_2_778
10
65.7410438
20
76.4864316
40
90.5198977
50
231.2444906
51
231.4116933
0
ARC
8
DEFAULT_255_2_778
10
14.9814507
20
12.688141
40
8.9930778
50
230.6716576
51
237.3980442
0
ARC
8
DEFAULT_255_2_778
10
12.788888
20
9.3619813
40
5.0099575
50
238.0265544
51
243.9570649
0
ARC
8
DEFAULT_255_2_778
10
12.6142706
20
9.0166265
40
4.6230064
50
244.0222747
51
249.1395551
0
ARC
8
DEFAULT_255_2_778
10
12.6597803
20
9.1408053
40
4.7552514
50
249.1599497
51
253.821621
0
ARC
8
DEFAULT_255_2_778
10
12.7712527
20
9.5262628
40
5.1565037
50
253.8254164
51
257.7688672
0
ARC
8
DEFAULT_255_2_778
10
12.8946228
20
10.0947557
40
5.738229
50
257.7675575
51
261.1488971
0
ARC
8
DEFAULT_255_2_778
10
13.0092004
20
10.8295341
40
6.4818871
50
261.1475285
51
264.1459595
0
ARC
8
DEFAULT_255_2_778
10
13.1033288
20
11.7459403
40
7.4031147
50
264.1446515
51
266.8457686
0
ARC
8
DEFAULT_255_2_778
10
13.1650865
20
12.8606297
40
8.5195136
50
266.8435516
51
269.2633693
0
ARC
8
DEFAULT_255_2_778
10
13.1804618
20
13.73048
40
9.3894906
50
269.2377956
51
270.0030174
0
ARC
8
DEFAULT_255_2_778
10
13.1808962
20
14.0512368
40
9.7102474
50
270.0003544
51
270.2812654
0
ARC
8
DEFAULT_255_2_778
10
13.180209
20
14.2059735
40
9.8649855
50
270.280845
51
270.5130618
0
ARC
8
DEFAULT_255_2_778
10
13.1788023
20
14.3686719
40
10.0276899
50
270.5127748
51
270.742845
0
ARC
8
DEFAULT_255_2_778
10
14.3140184
20
4.6490345
40
1.0052132
50
141.1709545
51
180.1487499
0
ARC
8
DEFAULT_255_2_778
10
14.3145848
20
4.6493243
40
1.005473
50
93.3109633
51
141.2040526
0
ARC
8
DEFAULT_255_2_778
10
14.3176365
20
4.6196908
40
1.0352341
50
89.9960111
51
93.3848579
0
ARC
8
DEFAULT_255_2_778
10
14.9172332
20
4.0408589
40
0.8071831
50
89.625542
51
154.43886
0
ARC
8
DEFAULT_255_2_778
10
14.9400424
20
4.0487831
40
0.8245159
50
155.6195947
51
180.1163039
0
ARC
8
DEFAULT_255_2_778
10
15.0584115
20
4.0409988
40
0.9429031
50
179.6286839
51
179.9984205
0
ARC
8
DEFAULT_255_2_778
10
14.9438259
20
3.2270372
40
0.8283468
50
179.5166652
51
203.6173451
0
ARC
8
DEFAULT_255_2_778
10
14.915553
20
3.2319007
40
0.8045454
50
204.7414116
51
267.4650886
0
ARC
8
DEFAULT_255_2_778
10
14.9225445
20
3.2382438
40
0.811219
50
266.9915751
51
269.9974621
0
ARC
8
DEFAULT_255_2_778
10
14.3146086
20
2.6256974
40
1.0055759
50
231.1839859
51
270.1481383
0
ARC
8
DEFAULT_255_2_778
10
14.3137199
20
2.6256651
40
1.0049941
50
183.2150303
51
231.2223111
0
ARC
8
DEFAULT_255_2_778
10
14.3426146
20
2.6285526
40
1.0340061
50
179.9959955
51
183.284981
0
ARC
8
DEFAULT_255_2_778
10
13.8969059
20
18.1344991
40
14.5052091
50
266.1696803
51
267.6755797
0
ARC
8
DEFAULT_255_2_778
10
13.7777383
20
16.3513612
40
12.7180937
50
264.6267399
51
266.1687091
0
ARC
8
DEFAULT_255_2_778
10
13.6290593
20
14.7800828
40
11.139797
50
262.7903846
51
264.6312936
0
ARC
8
DEFAULT_255_2_778
10
13.4454177
20
13.3340033
40
9.6821037
50
260.6541105
51
262.7945691
0
ARC
8
DEFAULT_255_2_778
10
13.2369982
20
12.0704047
40
8.4014321
50
258.2317403
51
260.657192
0
ARC
8
DEFAULT_255_2_778
10
13.0175708
20
11.017933
40
7.3263297
50
255.5574148
51
258.2329889
0
ARC
8
DEFAULT_255_2_778
10
12.7952711
20
10.1565299
40
6.4367048
50
252.4453297
51
255.561262
0
ARC
8
DEFAULT_255_2_778
10
12.5833999
20
9.4864831
40
5.7339587
50
248.9898772
51
252.4444077
0
ARC
8
DEFAULT_255_2_778
10
12.4136167
20
9.0425866
40
5.2587008
50
245.4085861
51
248.9827301
0
ARC
8
DEFAULT_255_2_778
10
12.3158166
20
8.8270413
40
5.022007
50
241.1937294
51
245.3998179
0
ARC
8
DEFAULT_255_2_778
10
12.3923794
20
8.9604283
40
5.1757803
50
236.6347834
51
241.1625567
0
ARC
8
DEFAULT_255_2_778
10
13.0406194
20
9.9289697
40
6.3412095
50
232.2164024
51
236.5559408
0
ARC
8
DEFAULT_255_2_778
10
18.3982157
20
16.7291843
40
14.9982763
50
229.383215
51
231.9569731
0
LINE
8
DEFAULT_255_2_778
10
8.6343884
20
5.3442832
11
8.6294653
21
5.3484432
0
ARC
8
DEFAULT_255_2_778
10
-0.1176672
20
-4.8144724
40
13.4088471
50
49.2817095
51
52.5177027
0
ARC
8
DEFAULT_255_2_778
10
4.3998306
20
1.0121918
40
6.0363041
50
52.8898004
51
57.257265
0
ARC
8
DEFAULT_255_2_778
10
4.8960304
20
1.7731619
40
5.1278711
50
57.3217712
51
61.8843786
0
ARC
8
DEFAULT_255_2_778
10
4.9319989
20
1.8355767
40
5.0558717
50
61.9105686
51
65.8129344
0
ARC
8
DEFAULT_255_2_778
10
4.8250486
20
1.5957534
40
5.3184609
50
65.8204571
51
69.287641
0
ARC
8
DEFAULT_255_2_778
10
4.6528928
20
1.1386349
40
5.8069225
50
69.2939866
51
72.6434298
0
ARC
8
DEFAULT_255_2_778
10
4.4409117
20
0.4598088
40
6.5180771
50
72.6449837
51
75.7101171
0
ARC
8
DEFAULT_255_2_778
10
4.2160694
20
-0.4215382
40
7.4276521
50
75.7074596
51
78.3931653
0
ARC
8
DEFAULT_255_2_778
10
4.0003945
20
-1.4678551
40
8.4959659
50
78.3880993
51
80.6624165
0
ARC
8
DEFAULT_255_2_778
10
3.7954646
20
-2.7148013
40
9.7596396
50
80.663027
51
82.8163114
0
ARC
8
DEFAULT_255_2_778
10
3.6195118
20
-4.0969474
40
11.1529392
50
82.8074073
51
84.447205
0
ARC
8
DEFAULT_255_2_778
10
3.4682602
20
-5.6613685
40
12.7246548
50
84.4509698
51
86.1700788
0
ARC
8
DEFAULT_255_2_778
10
3.3478927
20
-7.4338954
40
14.5012631
50
86.1633509
51
87.4975375
0
ARC
8
DEFAULT_255_2_778
10
3.2665885
20
-9.2902131
40
16.3593603
50
87.496923
51
88.7452972
0
ARC
8
DEFAULT_255_2_778
10
2.6190166
20
6.6609718
40
1.0057952
50
321.1848175
51
0.1454331
0
ARC
8
DEFAULT_255_2_778
10
2.6190644
20
6.6599635
40
1.0051262
50
273.2205579
51
321.2278952
0
ARC
8
DEFAULT_255_2_778
10
2.616277
20
6.6885141
40
1.0337891
50
269.9962047
51
273.2859021
0
ARC
8
DEFAULT_255_2_778
10
9.4969694
20
10.6920413
40
0.8283903
50
179.516977
51
203.6107708
0
ARC
8
DEFAULT_255_2_778
10
9.4683404
20
10.6965364
40
0.8041094
50
204.7213524
51
266.9539827
0
ARC
8
DEFAULT_255_2_778
10
9.4755619
20
10.7037739
40
0.811749
50
266.472128
51
269.9750667
0
LINE
8
DEFAULT_255_2_778
10
9.4752087
20
9.8920249
11
9.4755086
21
9.8920248
0
ARC
8
DEFAULT_255_2_778
10
14.3226839
20
10.6991907
40
0.8071831
50
269.625542
51
334.43886
0
ARC
8
DEFAULT_255_2_778
10
14.2998747
20
10.6912665
40
0.8245159
50
335.6195947
51
0.1163039
0
ARC
8
DEFAULT_255_2_778
10
14.1815056
20
10.6990508
40
0.9429031
50
359.6286839
51
359.9984205
0
ARC
8
DEFAULT_255_2_778
10
14.2960912
20
11.5129125
40
0.8283468
50
359.5166652
51
23.6173451
0
ARC
8
DEFAULT_255_2_778
10
14.3243641
20
11.5080489
40
0.8045454
50
24.7414116
51
87.4650886
0
ARC
8
DEFAULT_255_2_778
10
14.3173726
20
11.5017059
40
0.811219
50
86.9915751
51
89.9974621
0
LINE
8
DEFAULT_255_2_778
10
9.4755086
20
12.3129248
11
9.4752087
21
12.3129248
0
ARC
8
DEFAULT_255_2_778
10
9.4702777
20
11.5058423
40
0.8070976
50
89.6499455
51
154.4484426
0
ARC
8
DEFAULT_255_2_778
10
9.4931877
20
11.5136783
40
0.8245612
50
155.6264096
51
180.1160669
0
ARC
8
DEFAULT_255_2_778
10
9.6111235
20
11.5058987
40
0.9425151
50
179.6286136
51
179.9984109
0
LINE
8
DEFAULT_255_2_778
10
0.3969086
20
6.4625248
11
2.0109086
21
6.4625248
0
LINE
8
DEFAULT_255_2_778
10
2.8178086
20
7.2694248
11
2.8178086
21
8.0764248
0
LINE
8
DEFAULT_255_2_778
10
2.0109086
20
8.8834248
11
0.3969086
21
8.8834248
0
LINE
8
DEFAULT_255_2_778
10
0.3969086
20
8.8834248
11
0.3969086
21
9.6904248
0
LINE
8
DEFAULT_255_2_778
10
0.3969086
20
9.6904248
11
2.6162086
21
9.6904248
0
LINE
8
DEFAULT_255_2_778
10
3.6251086
20
8.6818248
11
3.6251086
21
7.7856248
0
LINE
8
DEFAULT_255_2_778
10
7.8619086
20
10.8934248
11
7.8619086
21
12.1113248
0
LINE
8
DEFAULT_255_2_778
10
8.8707086
20
13.1199248
11
14.9225086
21
13.1199248
0
LINE
8
DEFAULT_255_2_778
10
15.9314086
20
12.1110248
11
15.9314086
21
10.0936248
0
LINE
8
DEFAULT_255_2_778
10
14.9228086
20
9.0847248
11
8.8702086
21
9.0847248
0
LINE
8
DEFAULT_255_2_778
10
7.8616086
20
10.0933248
11
7.8616086
21
10.1976248
0
LINE
8
DEFAULT_255_2_778
10
13.3088086
20
4.3418248
11
13.3088086
21
4.6464248
0
LINE
8
DEFAULT_255_2_778
10
14.3177086
20
5.6549248
11
16.5365086
21
5.6549248
0
LINE
8
DEFAULT_255_2_778
10
16.5365086
20
5.6549248
11
16.5365086
21
4.8480248
0
LINE
8
DEFAULT_255_2_778
10
16.5365086
20
4.8480248
11
14.9225086
21
4.8480248
0
LINE
8
DEFAULT_255_2_778
10
14.1155086
20
4.0410248
11
14.1155086
21
3.2340248
0
LINE
8
DEFAULT_255_2_778
10
14.9225086
20
2.4270248
11
16.5365086
21
2.4270248
0
LINE
8
DEFAULT_255_2_778
10
16.5365086
20
2.4270248
11
16.5365086
21
1.6201248
0
LINE
8
DEFAULT_255_2_778
10
16.5365086
20
1.6201248
11
14.3172086
21
1.6201248
0
LINE
8
DEFAULT_255_2_778
10
13.3086086
20
2.6286248
11
13.3086086
21
3.6412248
0
LINE
8
DEFAULT_255_2_778
10
3.6248086
20
7.0652248
11
3.6248086
21
6.6635248
0
LINE
8
DEFAULT_255_2_778
10
2.6162086
20
5.6547248
11
0.3969086
21
5.6547248
0
LINE
8
DEFAULT_255_2_778
10
0.3969086
20
5.6547248
11
0.3969086
21
6.4625248
0
LINE
8
DEFAULT_255_2_778
10
9.4755086
20
9.8920248
11
14.3174086
21
9.8920248
0
LINE
8
DEFAULT_255_2_778
10
15.1244086
20
10.6990248
11
15.1244086
21
11.5059248
0
LINE
8
DEFAULT_255_2_778
10
14.3174086
20
12.3129248
11
9.4755086
21
12.3129248
0
LINE
8
DEFAULT_255_2_778
10
8.6686086
20
11.5059248
11
8.6686086
21
10.6990248
0
ENDSEC
0
EOF