0
SECTION
2
HEADER
9
$MEASUREMENT
70
1
0
ENDSEC
0
SECTION
2
TABLES
0
TABLE
2
LTYPE
0
LTYPE
72
65
70
64
2
CONTINUOUS
3
______
73
0
40
0
0
ENDTAB
0
TABLE
2
LAYER
0
LAYER
2
DEFAULT_255_2_778
70
0
62
255
6
CONTINUOUS
0
ENDTAB
0
ENDSEC
0
SECTION
2
ENTITIES
0
ARC
8
DEFAULT_255_2_778
10
9.8386733
20
18.8469724
40
1.6578057
50
93.0366567
51
120.2447662
0
ARC
8
DEFAULT_255_2_778
10
9.8390784
20
18.8436604
40
1.6611346
50
90.0120981
51
93.0445557
0
LINE
8
DEFAULT_255_2_778
10
9.8387276
20
20.504795
11
9.8390823
21
20.5047951
0
ARC
8
DEFAULT_255_2_778
10
9.8394169
20
18.8471229
40
1.6576722
50
60.7195406
51
90.0115645
0
ARC
8
DEFAULT_255_2_778
10
9.8359856
20
18.8407315
40
1.664925
50
59.7614233
51
60.7241211
0
ARC
8
DEFAULT_255_2_778
10
17.4584565
20
14.4032659
40
1.6413034
50
0.5059359
51
58.9040603
0
ARC
8
DEFAULT_255_2_778
10
17.588291
20
14.4177605
40
1.5114049
50
359.5283898
51
359.9999362
0
ARC
8
DEFAULT_255_2_778
10
17.5947327
20
5.4275097
40
1.5049409
50
0.0000475
51
0.3544659
0
ARC
8
DEFAULT_255_2_778
10
17.4440134
20
5.4507683
40
1.6558237
50
300.3994022
51
359.1952086
0
ARC
8
DEFAULT_255_2_778
10
17.5311688
20
5.3262984
40
1.5044128
50
298.4060991
51
299.9352018
0
ARC
8
DEFAULT_255_2_778
10
9.8485944
20
0.907396
40
1.5690204
50
269.7560384
51
300.3946279
0
ARC
8
DEFAULT_255_2_778
10
9.8418655
20
0.9595086
40
1.6211188
50
269.7635785
51
270.0017004
0
ARC
8
DEFAULT_255_2_778
10
9.8378905
20
0.9513014
40
1.6129
50
236.7328578
51
269.9035812
0
ARC
8
DEFAULT_255_2_778
10
4.818434
20
-2.0578739
40
3.5506156
50
58.5431557
51
60.2927491
0
ARC
8
DEFAULT_255_2_778
10
40.1745834
20
59.308942
40
67.2727426
50
240.0219038
51
240.0391293
0
ARC
8
DEFAULT_255_2_778
10
6.9835249
20
1.9031553
40
0.964677
50
218.7363861
51
243.9899893
0
ARC
8
DEFAULT_255_2_778
10
6.6137769
20
0.9722413
40
0.5035824
50
101.8760968
51
139.4658557
0
ARC
8
DEFAULT_255_2_778
10
11.7400158
20
-14.8398975
40
17.1231633
50
107.7263966
51
107.7838471
0
ARC
8
DEFAULT_255_2_778
10
6.1184844
20
2.8111563
40
1.4015773
50
286.924237
51
291.9435897
0
ARC
8
DEFAULT_255_2_778
10
4.9929747
20
6.0349252
40
4.8150706
50
290.0306338
51
301.0466368
0
ARC
8
DEFAULT_255_2_778
10
56.5950835
20
-85.7283783
40
100.4643046
50
119.2263048
51
119.2694887
0
ARC
8
DEFAULT_255_2_778
10
7.6390764
20
1.8115073
40
0.16617
50
89.5751877
51
125.6000965
0
ARC
8
DEFAULT_255_2_778
10
7.6402807
20
1.7895685
40
0.1881043
50
87.0981661
51
89.9915727
0
ARC
8
DEFAULT_255_2_778
10
7.6294424
20
1.7199189
40
0.2583164
50
55.233023
51
85.4791358
0
ARC
8
DEFAULT_255_2_778
10
9.8362054
20
0.952712
40
0.2190109
50
238.9811695
51
247.8271366
0
ARC
8
DEFAULT_255_2_778
10
9.8286447
20
0.9345229
40
0.1993136
50
247.8665141
51
270.1886616
0
ARC
8
DEFAULT_255_2_778
10
9.7899906
20
1.1738684
40
0.4404159
50
275.1208999
51
305.1241334
0
ARC
8
DEFAULT_255_2_778
10
8.6919186
20
3.0792171
40
2.6380405
50
300.8170795
51
301.1588862
0
ARC
8
DEFAULT_255_2_778
10
12.1134394
20
-2.5277229
40
3.9304497
50
120.4381079
51
121.5497609
0
ARC
8
DEFAULT_255_2_778
10
17.4692143
20
5.4576609
40
0.2560994
50
297.8478514
51
1.2542968
0
ARC
8
DEFAULT_255_2_778
10
17.4405516
20
5.4632571
40
0.2847009
50
0.0019662
51
4.040996
0
ARC
8
DEFAULT_255_2_778
10
17.4471681
20
14.3841707
40
0.2792844
50
354.8950831
51
359.9952618
0
ARC
8
DEFAULT_255_2_778
10
17.4471157
20
14.3833641
40
0.279338
50
0.160723
51
64.8016481
0
ARC
8
DEFAULT_255_2_778
10
9.8385969
20
18.8567603
40
0.2569606
50
54.4095509
51
89.9286161
0
LINE
8
DEFAULT_255_2_778
10
9.8389171
20
19.1137206
11
9.8385766
21
19.1137203
0
ARC
8
DEFAULT_255_2_778
10
9.8392733
20
18.8563773
40
0.257344
50
90.1551118
51
125.3328434
0
ARC
8
DEFAULT_255_2_778
10
2.227073
20
14.384292
40
0.2751666
50
114.4813531
51
179.9848864
0
ARC
8
DEFAULT_255_2_778
10
2.2282081
20
14.3843758
40
0.2763017
50
180.0023292
51
185.202871
0
ARC
8
DEFAULT_255_2_778
10
2.2129773
20
5.4604199
40
0.2608959
50
175.074597
51
179.9979045
0
ARC
8
DEFAULT_255_2_778
10
2.2038212
20
5.4585411
40
0.2517468
50
179.5702301
51
243.2078005
0
ARC
8
DEFAULT_255_2_778
10
5.0459347
20
5.6376359
40
1.8421513
50
239.6144536
51
266.0329809
0
ARC
8
DEFAULT_255_2_778
10
4.9715069
20
5.0922251
40
1.2934136
50
267.6508189
51
269.9921781
0
ARC
8
DEFAULT_255_2_778
10
4.9789004
20
4.918787
40
1.120001
50
269.6127349
51
290.9491509
0
ARC
8
DEFAULT_255_2_778
10
5.005801
20
4.7952379
40
0.9951832
50
292.0460593
51
359.8268134
0
ARC
8
DEFAULT_255_2_778
10
5.0637578
20
4.7922367
40
0.9372216
50
359.999574
51
0.9710537
0
ARC
8
DEFAULT_255_2_778
10
6.2045862
20
13.6463408
40
0.2015508
50
180.0042545
51
184.0744408
0
ARC
8
DEFAULT_255_2_778
10
6.2213768
20
13.6407793
40
0.2184118
50
91.1063187
51
178.5448231
0
ARC
8
DEFAULT_255_2_778
10
6.2171902
20
13.6675999
40
0.1915504
50
84.3511332
51
90.0090985
0
ARC
8
DEFAULT_255_2_778
10
7.2126802
20
13.665562
40
0.1919117
50
90.0024643
51
91.3541812
0
ARC
8
DEFAULT_255_2_778
10
7.1945196
20
13.6306507
40
0.2275483
50
357.1126257
51
85.4244396
0
ARC
8
DEFAULT_255_2_778
10
7.1719886
20
13.6191904
40
0.2497903
50
358.1092414
51
359.9995418
0
ARC
8
DEFAULT_255_2_778
10
7.1775754
20
13.6189578
40
0.244199
50
352.7925451
51
358.1205272
0
ARC
8
DEFAULT_255_2_778
10
4.5668028
20
4.7055996
40
2.8509435
50
359.9999961
51
0.0607029
0
ARC
8
DEFAULT_255_2_778
10
4.4119639
20
4.7059355
40
3.0057825
50
354.204728
51
359.9935935
0
ARC
8
DEFAULT_255_2_778
10
4.8666947
20
4.6195643
40
2.5449689
50
325.8192659
51
355.105608
0
ARC
8
DEFAULT_255_2_778
10
5.5695498
20
4.1708037
40
1.7115651
50
299.1230042
51
325.028488
0
ARC
8
DEFAULT_255_2_778
10
5.1667547
20
5.020821
40
2.6508762
50
269.4532585
51
297.78673
0
ARC
8
DEFAULT_255_2_778
10
5.1416314
20
5.399181
40
3.0291156
50
268.0402132
51
269.9967422
0
ARC
8
DEFAULT_255_2_778
10
5.1746397
20
5.7391195
40
3.3700518
50
242.3028204
51
267.6769973
0
ARC
8
DEFAULT_255_2_778
10
16.3219459
20
26.7548248
40
27.1591462
50
238.8031659
51
242.0877611
0
LINE
8
DEFAULT_255_2_778
10
2.2540582
20
3.5230845
11
2.2505744
21
3.5251489
0
ARC
8
DEFAULT_255_2_778
10
-20.7386117
20
-34.959965
40
44.8286367
50
59.1479032
51
60.359692
0
ARC
8
DEFAULT_255_2_778
10
2.2307123
20
5.4489312
40
1.6523303
50
181.3190069
51
241.0752254
0
ARC
8
DEFAULT_255_2_778
10
2.0850071
20
5.4282353
40
1.506287
50
180.0005093
51
180.6595527
0
ARC
8
DEFAULT_255_2_778
10
2.094031
20
5.4281856
40
1.5153108
50
179.6735193
51
179.9986284
0
ARC
8
DEFAULT_255_2_778
10
2.2218844
20
14.4038634
40
1.6431403
50
120.0309876
51
179.9492063
0
ARC
8
DEFAULT_255_2_778
10
12.0761184
20
1.6280993
40
12.4680763
50
90.7483026
51
93.9592075
0
ARC
8
DEFAULT_255_2_778
10
12.0143227
20
4.5727963
40
9.5228521
50
90.0030498
51
90.6079171
0
ARC
8
DEFAULT_255_2_778
10
12.0154046
20
5.3351305
40
8.7605179
50
88.8130569
51
90.0103907
0
ARC
8
DEFAULT_255_2_778
10
12.1831359
20
8.6229402
40
5.4708458
50
71.8804427
51
89.856111
0
ARC
8
DEFAULT_255_2_778
10
12.6696104
20
10.30905
40
3.7175743
50
60.5174721
51
70.9243589
0
ARC
8
DEFAULT_255_2_778
10
13.294489
20
11.5105079
40
2.3646332
50
19.228061
51
59.3701686
0
ARC
8
DEFAULT_255_2_778
10
12.7816683
20
11.2689338
40
2.9290023
50
3.151875
51
20.3864001
0
ARC
8
DEFAULT_255_2_778
10
12.8300807
20
11.2717263
40
2.8805095
50
0.8870446
51
3.149361
0
ARC
8
DEFAULT_255_2_778
10
15.4872707
20
11.3671317
40
0.2286903
50
270.4086513
51
347.1625729
0
ARC
8
DEFAULT_255_2_778
10
15.4763166
20
11.3940848
40
0.2559472
50
270.0052749
51
272.8184352
0
ARC
8
DEFAULT_255_2_778
10
15.4762949
20
11.387895
40
0.2497572
50
265.7635676
51
270.0103741
0
ARC
8
DEFAULT_255_2_778
10
15.4109429
20
-19.4100099
40
30.548866
50
89.9120334
51
90.0009692
0
ARC
8
DEFAULT_255_2_778
10
15.4533133
20
-55.360009
40
66.4988789
50
90.0369518
51
90.2581237
0
ARC
8
DEFAULT_255_2_778
10
14.8444159
20
80.6419664
40
69.5044595
50
270.0524018
51
270.2549827
0
ARC
8
DEFAULT_255_2_778
10
14.8997134
20
32.8495489
40
21.7120143
50
269.9927261
51
270.0218239
0
ARC
8
DEFAULT_255_2_778
10
14.8675835
20
29.7988252
40
18.661314
50
268.8576549
51
270.0901855
0
ARC
8
DEFAULT_255_2_778
10
14.4875177
20
11.3466069
40
0.2055436
50
270.0039326
51
272.2381465
0
ARC
8
DEFAULT_255_2_778
10
14.5118978
20
11.3839658
40
0.2441216
50
186.1102004
51
264.271725
0
ARC
8
DEFAULT_255_2_778
10
14.6577206
20
11.4451366
40
0.3982125
50
189.8018497
51
192.6424625
0
ARC
8
DEFAULT_255_2_778
10
14.6555638
20
11.444768
40
0.3960245
50
187.843987
51
189.8024252
0
ARC
8
DEFAULT_255_2_778
10
12.6317538
20
11.0902999
40
1.6589198
50
10.4334794
51
47.0353743
0
ARC
8
DEFAULT_255_2_778
10
13.0414035
20
11.4633322
40
1.1076852
50
49.3912267
51
61.940545
0
ARC
8
DEFAULT_255_2_778
10
12.360234
20
9.958084
40
2.758494
50
64.1624259
51
87.9640505
0
ARC
8
DEFAULT_255_2_778
10
12.0752061
20
6.8658841
40
5.8614807
50
86.2532474
51
88.459913
0
ARC
8
DEFAULT_255_2_778
10
11.9853545
20
3.4072578
40
9.321273
50
88.4791903
51
90.083101
0
ARC
8
DEFAULT_255_2_778
10
12.0171615
20
-13.8314129
40
26.5599724
50
90.0977792
51
90.7033641
0
ARC
8
DEFAULT_255_2_778
10
10.0031841
20
171.7012058
40
158.9836082
50
270.5897712
51
270.6083228
0
ARC
8
DEFAULT_255_2_778
10
12.0352342
20
4.8303597
40
7.9055641
50
92.8682422
51
95.450543
0
ARC
8
DEFAULT_255_2_778
10
11.419136
20
10.4837737
40
2.2205025
50
93.4810071
51
117.9459183
0
ARC
8
DEFAULT_255_2_778
10
11.090393
20
11.2204013
40
1.4167716
50
120.1627736
51
125.7151173
0
ARC
8
DEFAULT_255_2_778
10
10.7857328
20
11.6929551
40
0.8557188
50
127.623272
51
179.687667
0
ARC
8
DEFAULT_255_2_778
10
10.9697331
20
11.6575222
40
1.0404793
50
177.7914103
51
179.3739009
0
ARC
8
DEFAULT_255_2_778
10
10.9748619
20
11.657487
40
1.0456084
50
179.3750447
51
179.9989752
0
ARC
8
DEFAULT_255_2_778
10
10.9397842
20
11.655567
40
1.0105325
50
179.8900785
51
196.9878957
0
ARC
8
DEFAULT_255_2_778
10
10.5295346
20
11.6222497
40
0.6147798
50
205.2174157
51
251.4591388
0
ARC
8
DEFAULT_255_2_778
10
11.0246149
20
12.6817047
40
1.781606
50
247.194122
51
250.5309462
0
ARC
8
DEFAULT_255_2_778
10
12.4384613
20
16.7623761
40
6.1002432
50
250.7852298
51
252.3646552
0
ARC
8
DEFAULT_255_2_778
10
13.3851151
20
21.7488679
40
11.1557956
50
255.4916067
51
262.3576936
0
ARC
8
DEFAULT_255_2_778
10
19.2991234
20
61.7661231
40
51.6069174
50
261.7585413
51
262.2537206
0
LINE
8
DEFAULT_255_2_778
10
12.3432032
20
10.6301368
11
12.3678344
21
10.626754
0
ARC
8
DEFAULT_255_2_778
10
10.5310052
20
-4.7560147
40
15.4920468
50
77.1420702
51
83.1906534
0
ARC
8
DEFAULT_255_2_778
10
12.4466567
20
4.0644681
40
6.4671422
50
70.1592996
51
76.2982239
0
ARC
8
DEFAULT_255_2_778
10
13.9811511
20
8.1125286
40
2.139686
50
35.3608449
51
72.0198668
0
ARC
8
DEFAULT_255_2_778
10
14.4919778
20
8.5449419
40
1.47395
50
17.546997
51
33.1439699
0
ARC
8
DEFAULT_255_2_778
10
13.2100328
20
8.1670663
40
2.8102931
50
0.0623133
51
17.0128684
0
ARC
8
DEFAULT_255_2_778
10
13.1287535
20
8.1663973
40
2.891573
50
0
51
0.0738189
0
ARC
8
DEFAULT_255_2_778
10
13.5620287
20
8.1349785
40
2.4584986
50
329.3486961
51
0.7322393
0
ARC
8
DEFAULT_255_2_778
10
13.9652912
20
7.932118
40
2.0083974
50
319.524446
51
328.4622934
0
ARC
8
DEFAULT_255_2_778
10
13.3293735
20
8.5572343
40
2.8985855
50
286.994322
51
318.2844526
0
ARC
8
DEFAULT_255_2_778
10
12.6963683
20
10.1840776
40
4.6412209
50
283.6644775
51
288.5978416
0
ARC
8
DEFAULT_255_2_778
10
12.5520767
20
10.7484495
40
5.2237101
50
283.6006074
51
283.7399692
0
ARC
8
DEFAULT_255_2_778
10
12.2600611
20
12.4694902
40
6.9662073
50
269.5798387
51
282.6063436
0
ARC
8
DEFAULT_255_2_778
10
12.2090558
20
14.2023915
40
8.6989213
50
269.7076997
51
269.9994806
0
ARC
8
DEFAULT_255_2_778
10
12.2422918
20
15.6524717
40
10.1491851
50
264.0796442
51
269.5618353
0
ARC
8
DEFAULT_255_2_778
10
12.0580002
20
12.9086463
40
7.4016571
50
260.8293389
51
263.3078049
0
ARC
8
DEFAULT_255_2_778
10
11.4374794
20
9.727982
40
4.1640931
50
239.3387121
51
262.2834429
0
ARC
8
DEFAULT_255_2_778
10
10.7857444
20
8.4868657
40
2.7650741
50
227.6111233
51
237.8403656
0
ARC
8
DEFAULT_255_2_778
10
10.5737947
20
8.2016836
40
2.4118191
50
188.0972851
51
226.7626382
0
ARC
8
DEFAULT_255_2_778
10
10.9273768
20
8.2996218
40
2.7760718
50
182.0370447
51
189.070639
0
ARC
8
DEFAULT_255_2_778
10
10.9143297
20
8.29915
40
2.7630162
50
180.001015
51
182.0368841
0
ARC
8
DEFAULT_255_2_778
10
10.8947873
20
8.2991613
40
2.743474
50
177.9642049
51
180.0012579
0
ARC
8
DEFAULT_255_2_778
10
8.3691857
20
8.3776521
40
0.2169716
50
89.5325814
51
174.9847081
0
ARC
8
DEFAULT_255_2_778
10
8.370963
20
8.3874831
40
0.2071334
50
88.5645728
51
90.0020164
0
ARC
8
DEFAULT_255_2_778
10
8.3710489
20
8.3905365
40
0.2040787
50
84.9410195
51
88.5672061
0
ARC
8
DEFAULT_255_2_778
10
9.3731394
20
8.3921778
40
0.2016007
50
90.0124867
51
94.26547
0
ARC
8
DEFAULT_255_2_778
10
9.3564829
20
8.3614093
40
0.2329621
50
359.9042679
51
85.9107712
0
ARC
8
DEFAULT_255_2_778
10
12.3954397
20
8.7725133
40
2.8360067
50
188.3428386
51
190.7916416
0
ARC
8
DEFAULT_255_2_778
10
11.2484978
20
8.4926637
40
1.6580419
50
188.7126504
51
218.7988054
0
ARC
8
DEFAULT_255_2_778
10
10.7298919
20
8.1300786
40
1.0275485
50
221.162068
51
234.6746896
0
ARC
8
DEFAULT_255_2_778
10
11.4354936
20
9.3310607
40
2.418317
50
237.4890994
51
263.425272
0
ARC
8
DEFAULT_255_2_778
10
11.8694686
20
12.1195583
40
5.2393594
50
262.2021272
51
267.8749601
0
ARC
8
DEFAULT_255_2_778
10
12.2788585
20
22.9122731
40
16.0398346
50
267.8431339
51
269.651155
0
ARC
8
DEFAULT_255_2_778
10
11.7638618
20
-32.581982
40
39.456925
50
89.1229163
51
89.393967
0
ARC
8
DEFAULT_255_2_778
10
14.4226503
20
-38.1228901
40
45.0401065
50
92.5062232
51
92.6148375
0
ARC
8
DEFAULT_255_2_778
10
11.9993479
20
18.9984615
40
12.1328165
50
272.1434843
51
274.3219955
0
ARC
8
DEFAULT_255_2_778
10
12.7733606
20
9.6740056
40
2.7774059
50
272.8962361
51
292.3765772
0
ARC
8
DEFAULT_255_2_778
10
13.1924273
20
8.5388995
40
1.5688705
50
294.0061377
51
309.8603159
0
ARC
8
DEFAULT_255_2_778
10
13.4992752
20
8.0487639
40
0.9990698
50
314.3724772
51
0.516706
0
ARC
8
DEFAULT_255_2_778
10
13.2555965
20
8.0855686
40
1.2430187
50
358.7187052
51
0.000643
0
ARC
8
DEFAULT_255_2_778
10
13.2578084
20
8.0860019
40
1.2408069
50
359.9806375
51
11.6291944
0
ARC
8
DEFAULT_255_2_778
10
13.8329798
20
8.1328876
40
0.6716507
50
17.6130278
51
65.6970436
0
ARC
8
DEFAULT_255_2_778
10
13.3717768
20
7.3555204
40
1.5731494
50
62.0379608
51
67.7930295
0
ARC
8
DEFAULT_255_2_778
10
12.9915407
20
6.4321716
40
2.5717217
50
67.725099
51
70.7374574
0
ARC
8
DEFAULT_255_2_778
10
11.7064804
20
2.0005299
40
7.1835162
50
72.7228282
51
83.4331634
0
ARC
8
DEFAULT_255_2_778
10
8.8131374
20
-19.8658263
40
29.2396866
50
82.7009165
51
83.8979202
0
LINE
8
DEFAULT_255_2_778
10
11.9213209
20
9.2081908
11
11.9062011
21
9.2098579
0
ARC
8
DEFAULT_255_2_778
10
13.1119675
20
22.3040007
40
13.1495417
50
258.5762088
51
264.7387897
0
ARC
8
DEFAULT_255_2_778
10
11.6194135
20
14.558859
40
5.2626968
50
249.7098484
51
257.8026354
0
ARC
8
DEFAULT_255_2_778
10
10.4753372
20
11.6694855
40
2.1570496
50
214.4326348
51
251.599391
0
ARC
8
DEFAULT_255_2_778
10
9.9892106
20
11.2655285
40
1.5287966
50
199.8496793
51
212.2469151
0
ARC
8
DEFAULT_255_2_778
10
10.9448856
20
11.5882791
40
2.5373693
50
179.9731076
51
199.377104
0
ARC
8
DEFAULT_255_2_778
10
11.179328
20
11.5922642
40
2.7718127
50
180.0044429
51
180.0577578
0
ARC
8
DEFAULT_255_2_778
10
10.7251217
20
11.6185873
40
2.3177583
50
148.1471851
51
180.6560432
0
ARC
8
DEFAULT_255_2_778
10
10.3507355
20
11.8192153
40
1.8940678
50
135.7355375
51
147.3254598
0
ARC
8
DEFAULT_255_2_778
10
11.034797
20
11.1028863
40
2.8841376
50
105.4199086
51
135.0297578
0
ARC
8
DEFAULT_255_2_778
10
11.6145707
20
9.3689667
40
4.7108149
50
98.9782803
51
106.6103464
0
ARC
8
DEFAULT_255_2_778
10
11.8420193
20
8.0301631
40
6.0687309
50
95.9299397
51
99.1267722
0
LINE
8
DEFAULT_255_2_778
10
10.6744448
20
20.2791201
11
18.3061448
21
15.8087201
0
LINE
8
DEFAULT_255_2_778
10
19.0996448
20
14.4053201
11
19.0996448
21
5.4368201
0
LINE
8
DEFAULT_255_2_778
10
18.2468448
20
4.0030201
11
10.6424448
21
-0.4459799
0
LINE
8
DEFAULT_255_2_778
10
8.9531448
20
-0.3972799
11
6.6713448
21
0.9709201
0
LINE
8
DEFAULT_255_2_778
10
7.7767448
20
1.9321201
11
9.7233448
21
0.7650201
0
LINE
8
DEFAULT_255_2_778
10
10.1222448
20
0.8610201
11
17.5888448
21
5.2312201
0
LINE
8
DEFAULT_255_2_778
10
17.7245448
20
5.4833201
11
17.7253448
21
14.3593201
0
LINE
8
DEFAULT_255_2_778
10
17.5660448
20
14.6361201
11
9.9881448
21
19.0657201
0
LINE
8
DEFAULT_255_2_778
10
9.6904448
20
19.0663201
11
2.1130448
21
14.6347201
0
LINE
8
DEFAULT_255_2_778
10
1.9530448
20
14.3593201
11
1.9530448
21
5.4828201
0
LINE
8
DEFAULT_255_2_778
10
2.0903448
20
5.2338201
11
4.1141448
21
4.0485201
0
LINE
8
DEFAULT_255_2_778
10
6.0008448
20
4.8081201
11
6.0035448
21
13.6320201
0
LINE
8
DEFAULT_255_2_778
10
6.2360448
20
13.8582201
11
7.2081448
21
13.8574201
0
LINE
8
DEFAULT_255_2_778
10
7.4198448
20
13.5883201
11
7.4177448
21
4.7086201
0
LINE
8
DEFAULT_255_2_778
10
0.5787448
20
5.4368201
11
0.5787448
21
14.4053201
0
LINE
8
DEFAULT_255_2_778
10
1.3995448
20
15.8264201
11
9.0036448
21
20.2791201
0
LINE
8
DEFAULT_255_2_778
10
9.0036448
20
20.2791201
11
9.0036448
21
20.2791201
0
LINE
8
DEFAULT_255_2_778
10
8.3890448
20
8.5938201
11
9.3581448
21
8.5932201
0
LINE
8
DEFAULT_255_2_778
10
11.2150448
20
14.0664201
11
11.2152448
21
14.0664201
0
ENDSEC
0
EOF