0
SECTION
2
HEADER
9
$MEASUREMENT
70
1
0
ENDSEC
0
SECTION
2
TABLES
0
TABLE
2
LTYPE
0
LTYPE
72
65
70
64
2
CONTINUOUS
3
______
73
0
40
0
0
ENDTAB
0
TABLE
2
LAYER
0
LAYER
2
DEFAULT_255_2_778
70
0
62
255
6
CONTINUOUS
0
ENDTAB
0
ENDSEC
0
SECTION
2
ENTITIES
0
ARC
8
DEFAULT_255_2_778
10
17.6269419
20
3.5693667
40
4.2012259
50
344.07157
51
0.0349996
0
ARC
8
DEFAULT_255_2_778
10
17.5826065
20
3.5894788
40
4.2493845
50
313.7229701
51
343.9748593
0
ARC
8
DEFAULT_255_2_778
10
17.5799854
20
3.5787735
40
4.2434697
50
285.576431
51
313.8484511
0
ARC
8
DEFAULT_255_2_778
10
17.5972535
20
3.5405573
40
4.2020251
50
269.966096
51
285.4895475
0
ARC
8
DEFAULT_255_2_778
10
4.8922046
20
3.5394788
40
4.2009465
50
254.0710389
51
270.0349478
0
ARC
8
DEFAULT_255_2_778
10
4.912442
20
3.5841343
40
4.2494475
50
223.6564293
51
253.9738956
0
ARC
8
DEFAULT_255_2_778
10
4.9015789
20
3.5866306
40
4.2433217
50
195.5522948
51
223.782073
0
ARC
8
DEFAULT_255_2_778
10
4.8635566
20
3.5694516
40
4.2020903
50
179.9661648
51
195.4656361
0
ARC
8
DEFAULT_255_2_778
10
4.8624326
20
16.274494
40
4.2009665
50
164.0710972
51
180.0349286
0
ARC
8
DEFAULT_255_2_778
10
4.9070899
20
16.2542626
40
4.2494676
50
133.6701273
51
163.9740367
0
ARC
8
DEFAULT_255_2_778
10
4.9095474
20
16.2651739
40
4.2432822
50
105.5577171
51
133.7958632
0
ARC
8
DEFAULT_255_2_778
10
4.8922873
20
16.3034444
40
4.2017893
50
89.9661873
51
105.4709484
0
ARC
8
DEFAULT_255_2_778
10
17.5973319
20
16.303988
40
4.2012458
50
74.0716283
51
90.0349804
0
ARC
8
DEFAULT_255_2_778
10
17.5772136
20
16.2596265
40
4.2494314
50
43.7234796
51
73.9749333
0
ARC
8
DEFAULT_255_2_778
10
17.5880117
20
16.2570856
40
4.243394
50
15.5770465
51
43.8490472
0
ARC
8
DEFAULT_255_2_778
10
17.6264242
20
16.2744158
40
4.2017435
50
359.9661451
51
15.4900675
0
LINE
8
DEFAULT_255_2_778
10
17.594767
20
-0.661467
11
4.894767
21
-0.661467
0
LINE
8
DEFAULT_255_2_778
10
0.661467
20
3.571933
11
0.661467
21
16.271933
0
LINE
8
DEFAULT_255_2_778
10
4.894767
20
20.505233
11
17.594767
21
20.505233
0
LINE
8
DEFAULT_255_2_778
10
21.828167
20
16.271933
11
21.828167
21
3.571933
0
LINE
8
DEFAULT_255_2_778
10
21.828167
20
3.571933
11
21.828167
21
3.571933
0
LINE
8
DEFAULT_255_2_778
10
21.828167
20
3.571933
11
21.828167
21
3.571933
0
ARC
8
DEFAULT_255_2_778
10
17.5947472
20
16.2762832
40
1.9005833
50
64.9556717
51
89.9984028
0
ARC
8
DEFAULT_255_2_778
10
17.5900844
20
16.267842
40
1.9102047
50
9.6250672
51
64.9361402
0
ARC
8
DEFAULT_255_2_778
10
17.5790545
20
16.2698533
40
1.9207467
50
0.0600541
51
9.5109049
0
ARC
8
DEFAULT_255_2_778
10
17.5991141
20
5.688626
40
1.9006861
50
334.95636
51
359.9982057
0
ARC
8
DEFAULT_255_2_778
10
17.5908578
20
5.6931439
40
1.9100787
50
279.6232135
51
334.9384178
0
ARC
8
DEFAULT_255_2_778
10
17.5929711
20
5.7038783
40
1.9203127
50
270.054576
51
279.5075061
0
ARC
8
DEFAULT_255_2_778
10
4.8946742
20
5.68376
40
1.9001936
50
244.9561399
51
270.0037997
0
ARC
8
DEFAULT_255_2_778
10
4.8995529
20
5.6925664
40
1.9102373
50
189.6242403
51
244.9353784
0
ARC
8
DEFAULT_255_2_778
10
4.9105961
20
5.6905811
40
1.9207969
50
180.0600962
51
189.5107832
0
ARC
8
DEFAULT_255_2_778
10
4.8903835
20
16.2718135
40
1.9005833
50
154.9556717
51
179.9984028
0
ARC
8
DEFAULT_255_2_778
10
4.8988247
20
16.2671506
40
1.9102047
50
99.6250672
51
154.9361402
0
ARC
8
DEFAULT_255_2_778
10
4.8968134
20
16.2561207
40
1.9207467
50
90.0600541
51
99.5109049
0
LINE
8
DEFAULT_255_2_778
10
19.4998002
20
16.2718665
11
19.4998002
21
5.6885665
0
LINE
8
DEFAULT_255_2_778
10
17.5948002
20
3.7835665
11
4.8948002
21
3.7835665
0
LINE
8
DEFAULT_255_2_778
10
2.9898002
20
5.6885665
11
2.9898002
21
16.2718665
0
LINE
8
DEFAULT_255_2_778
10
4.8948002
20
18.1768665
11
17.5948002
21
18.1768665
0
ARC
8
DEFAULT_255_2_778
10
17.5947074
20
16.2762136
40
1.9006861
50
64.95636
51
89.9982057
0
ARC
8
DEFAULT_255_2_778
10
17.5901896
20
16.2679573
40
1.9100787
50
9.6232135
51
64.9384178
0
ARC
8
DEFAULT_255_2_778
10
17.5794551
20
16.2700706
40
1.9203127
50
0.054576
51
9.5075061
0
ARC
8
DEFAULT_255_2_778
10
17.5995734
20
5.6883737
40
1.9001936
50
334.9561399
51
0.0037997
0
ARC
8
DEFAULT_255_2_778
10
17.5907671
20
5.6932524
40
1.9102373
50
279.6242403
51
334.9353784
0
ARC
8
DEFAULT_255_2_778
10
17.5927523
20
5.7042956
40
1.9207969
50
270.0600962
51
279.5107832
0
ARC
8
DEFAULT_255_2_778
10
4.8948199
20
5.684083
40
1.9005833
50
244.9556717
51
269.9984028
0
ARC
8
DEFAULT_255_2_778
10
4.8994828
20
5.6925242
40
1.9102047
50
189.6250672
51
244.9361402
0
ARC
8
DEFAULT_255_2_778
10
4.9105127
20
5.690513
40
1.9207467
50
180.0600541
51
189.5109049
0
ARC
8
DEFAULT_255_2_778
10
4.8903502
20
16.2718468
40
1.9005833
50
154.9556717
51
179.9984028
0
ARC
8
DEFAULT_255_2_778
10
4.8987914
20
16.2671839
40
1.9102047
50
99.6250672
51
154.9361402
0
ARC
8
DEFAULT_255_2_778
10
4.8967802
20
16.256154
40
1.9207467
50
90.0600541
51
99.5109049
0
ARC
8
DEFAULT_255_2_778
10
4.892206
20
16.3042341
40
4.2009665
50
89.9650714
51
105.9289028
0
ARC
8
DEFAULT_255_2_778
10
4.9124374
20
16.2595768
40
4.2494676
50
106.0259633
51
136.3298727
0
ARC
8
DEFAULT_255_2_778
10
4.9015261
20
16.2571193
40
4.2432822
50
136.2041368
51
164.4422829
0
ARC
8
DEFAULT_255_2_778
10
4.8632556
20
16.2743794
40
4.2017893
50
164.5290516
51
180.0338127
0
ARC
8
DEFAULT_255_2_778
10
4.8624326
20
5.6859387
40
4.2009665
50
179.9650714
51
195.9289028
0
ARC
8
DEFAULT_255_2_778
10
4.9070899
20
5.7061702
40
4.2494676
50
196.0259633
51
226.3298727
0
ARC
8
DEFAULT_255_2_778
10
4.9095474
20
5.6952589
40
4.2432822
50
226.2041368
51
254.4422829
0
ARC
8
DEFAULT_255_2_778
10
4.8922873
20
5.6569883
40
4.2017893
50
254.5290516
51
270.0338127
0
ARC
8
DEFAULT_255_2_778
10
17.5973319
20
5.6564448
40
4.2012458
50
269.9650196
51
285.9283717
0
ARC
8
DEFAULT_255_2_778
10
17.5772136
20
5.7008063
40
4.2494314
50
286.0250667
51
316.2765204
0
ARC
8
DEFAULT_255_2_778
10
17.5880117
20
5.7033471
40
4.243394
50
316.1509528
51
344.4229535
0
ARC
8
DEFAULT_255_2_778
10
17.6264242
20
5.686017
40
4.2017435
50
344.5099325
51
0.0338549
0
ARC
8
DEFAULT_255_2_778
10
17.6272212
20
16.2744621
40
4.2009465
50
359.9650522
51
15.9289611
0
ARC
8
DEFAULT_255_2_778
10
17.5825657
20
16.2542247
40
4.2494475
50
16.0261044
51
46.3435707
0
ARC
8
DEFAULT_255_2_778
10
17.5800694
20
16.2650878
40
4.2433217
50
46.217927
51
74.4477052
0
ARC
8
DEFAULT_255_2_778
10
17.5972484
20
16.3031101
40
4.2020903
50
74.5343639
51
90.0338352
0
LINE
8
DEFAULT_255_2_778
10
19.499767
20
16.2718997
11
19.499767
21
5.6884997
0
LINE
8
DEFAULT_255_2_778
10
17.594767
20
3.7834997
11
4.894767
21
3.7834997
0
LINE
8
DEFAULT_255_2_778
10
2.989767
20
5.6884997
11
2.989767
21
16.2718997
0
LINE
8
DEFAULT_255_2_778
10
4.894767
20
18.1768997
11
17.594767
21
18.1768997
0
LINE
8
DEFAULT_255_2_778
10
17.594767
20
18.1768997
11
17.594767
21
18.1768997
0
LINE
8
DEFAULT_255_2_778
10
17.594767
20
18.1768997
11
17.594767
21
18.1768997
0
LINE
8
DEFAULT_255_2_778
10
17.594767
20
20.5051997
11
4.894767
21
20.5051997
0
LINE
8
DEFAULT_255_2_778
10
0.661467
20
16.2718997
11
0.661467
21
5.6884997
0
LINE
8
DEFAULT_255_2_778
10
4.894767
20
1.4551997
11
17.594767
21
1.4551997
0
LINE
8
DEFAULT_255_2_778
10
21.828167
20
5.6884997
11
21.828167
21
16.2718997
0
LINE
8
DEFAULT_255_2_778
10
17.594767
20
20.5051997
11
17.594767
21
20.5051997
0
LINE
8
DEFAULT_255_2_778
10
17.594767
20
20.5051997
11
17.594767
21
20.5051997
0
LINE
8
DEFAULT_255_2_778
10
17.594767
20
20.5051997
11
17.594767
21
20.5051997
0
LINE
8
DEFAULT_255_2_778
10
17.1714335
20
16.0601999
11
17.1714335
21
5.9001999
0
LINE
8
DEFAULT_255_2_778
10
17.1714335
20
5.9001999
11
11.8798335
21
5.9001999
0
LINE
8
DEFAULT_255_2_778
10
11.8798335
20
5.9001999
11
11.8798335
21
8.4401999
0
LINE
8
DEFAULT_255_2_778
10
11.8798335
20
8.4401999
11
14.8431335
21
8.4401999
0
LINE
8
DEFAULT_255_2_778
10
14.8431335
20
8.4401999
11
14.8431335
21
13.7318999
0
LINE
8
DEFAULT_255_2_778
10
14.8431335
20
13.7318999
11
11.8798335
21
13.7318999
0
LINE
8
DEFAULT_255_2_778
10
11.8798335
20
13.7318999
11
11.8798335
21
16.0601999
0
LINE
8
DEFAULT_255_2_778
10
11.8798335
20
16.0601999
11
17.1714335
21
16.0601999
0
LINE
8
DEFAULT_255_2_778
10
17.1714335
20
16.0601999
11
17.1714335
21
16.0601999
0
LINE
8
DEFAULT_255_2_778
10
17.1714335
20
16.0601999
11
17.1714335
21
16.0601999
0
LINE
8
DEFAULT_255_2_778
10
10.6098335
20
16.0601999
11
10.6098335
21
13.7318999
0
LINE
8
DEFAULT_255_2_778
10
10.6098335
20
13.7318999
11
7.6464335
21
13.7318999
0
LINE
8
DEFAULT_255_2_778
10
7.6464335
20
13.7318999
11
7.6464335
21
8.4401999
0
LINE
8
DEFAULT_255_2_778
10
7.6464335
20
8.4401999
11
10.6098335
21
8.4401999
0
LINE
8
DEFAULT_255_2_778
10
10.6098335
20
8.4401999
11
10.6098335
21
5.9001999
0
LINE
8
DEFAULT_255_2_778
10
10.6098335
20
5.9001999
11
5.3181335
21
5.9001999
0
LINE
8
DEFAULT_255_2_778
10
5.3181335
20
5.9001999
11
5.3181335
21
16.0601999
0
LINE
8
DEFAULT_255_2_778
10
5.3181335
20
16.0601999
11
10.6098335
21
16.0601999
0
LINE
8
DEFAULT_255_2_778
10
10.6098335
20
16.0601999
11
10.6098335
21
16.0601999
0
LINE
8
DEFAULT_255_2_778
10
10.6098335
20
16.0601999
11
10.6098335
21
16.0601999
0
ENDSEC
0
EOF