0
SECTION
2
HEADER
9
$MEASUREMENT
70
1
0
ENDSEC
0
SECTION
2
TABLES
0
TABLE
2
LTYPE
0
LTYPE
72
65
70
64
2
CONTINUOUS
3
______
73
0
40
0
0
ENDTAB
0
TABLE
2
LAYER
0
LAYER
2
DEFAULT_255_2_778
70
0
62
255
6
CONTINUOUS
0
ENDTAB
0
ENDSEC
0
SECTION
2
ENTITIES
0
ARC
8
DEFAULT_255_2_778
10
16.7616522
20
15.3794418
40
1.2739576
50
44.7589818
51
64.9367344
0
ARC
8
DEFAULT_255_2_778
10
16.7641752
20
15.381426
40
1.2710923
50
65.0018625
51
90.0025121
0
LINE
8
DEFAULT_255_2_778
10
16.7641194
20
16.6525184
11
16.7636451
21
16.6525185
0
ARC
8
DEFAULT_255_2_778
10
16.7626665
20
15.384302
40
1.2682168
50
89.9557863
51
122.85088
0
ARC
8
DEFAULT_255_2_778
10
16.7709054
20
15.373789
40
1.2815184
50
122.9053611
51
135.2202991
0
ARC
8
DEFAULT_255_2_778
10
5.9329507
20
9.8959032
40
2.5427348
50
269.997903
51
315.2274045
0
ARC
8
DEFAULT_255_2_778
10
5.9327683
20
9.8956724
40
2.5425039
50
224.7704305
51
270.0020126
0
ARC
8
DEFAULT_255_2_778
10
5.9501079
20
9.9203752
40
2.5722168
50
211.1781847
51
224.8890594
0
ARC
8
DEFAULT_255_2_778
10
5.9436545
20
9.9141915
40
2.563495
50
190.02666
51
211.1346104
0
ARC
8
DEFAULT_255_2_778
10
5.9735862
20
9.9207039
40
2.5941036
50
179.9971926
51
190.0531986
0
LINE
8
DEFAULT_255_2_778
10
3.3794826
20
9.920831
11
3.3794828
21
9.9216224
0
ARC
8
DEFAULT_255_2_778
10
5.9586567
20
9.9226173
40
2.5791741
50
153.1524387
51
180.0221012
0
ARC
8
DEFAULT_255_2_778
10
5.9415855
20
9.9282758
40
2.561389
50
138.2483419
51
153.0929127
0
ARC
8
DEFAULT_255_2_778
10
5.9753965
20
9.8994782
40
2.6057898
50
135.1577894
51
138.2710076
0
ARC
8
DEFAULT_255_2_778
10
10.2892481
20
17.9600839
40
2.5429846
50
44.7685907
51
89.9975329
0
ARC
8
DEFAULT_255_2_778
10
10.2894714
20
17.9603135
40
2.5427549
50
90.0025632
51
135.2335624
0
ARC
8
DEFAULT_255_2_778
10
5.983513
20
9.910824
40
5.1642318
50
135.1554195
51
144.5575008
0
ARC
8
DEFAULT_255_2_778
10
5.9376773
20
9.9446813
40
5.1072563
50
144.5687642
51
156.4621718
0
ARC
8
DEFAULT_255_2_778
10
5.985348
20
9.9263483
40
5.1582825
50
156.4869407
51
175.2958256
0
ARC
8
DEFAULT_255_2_778
10
6.0246779
20
9.9209839
40
5.1979201
50
175.2724477
51
180.0003076
0
LINE
8
DEFAULT_255_2_778
10
0.8267576
20
9.920956
11
0.8267577
21
9.9201642
0
ARC
8
DEFAULT_255_2_778
10
5.9994082
20
9.9188322
40
5.1726507
50
179.9852464
51
201.5734597
0
ARC
8
DEFAULT_255_2_778
10
5.9399079
20
9.8980225
40
5.1096675
50
201.6017843
51
213.8223141
0
ARC
8
DEFAULT_255_2_778
10
5.9728716
20
9.9214241
40
5.1500785
50
213.8344742
51
223.4544666
0
ARC
8
DEFAULT_255_2_778
10
6.0271851
20
9.9708056
40
5.2234697
50
223.437919
51
224.8185793
0
ARC
8
DEFAULT_255_2_778
10
5.9323778
20
9.8704572
40
5.0854888
50
224.7695131
51
269.9997722
0
ARC
8
DEFAULT_255_2_778
10
5.9323375
20
9.8704571
40
5.0854886
50
270.0002268
51
315.2304873
0
ARC
8
DEFAULT_255_2_778
10
16.7584023
20
15.3642134
40
1.2810687
50
315.1268304
51
336.2888961
0
ARC
8
DEFAULT_255_2_778
10
16.7475543
20
15.3675751
40
1.2923535
50
336.3458351
51
0.0307384
0
ARC
8
DEFAULT_255_2_778
10
16.7525604
20
15.3697919
40
1.2873482
50
359.9321948
51
33.203081
0
ARC
8
DEFAULT_255_2_778
10
16.7530125
20
15.3679149
40
1.287999
50
33.2839618
51
44.84299
0
ARC
8
DEFAULT_255_2_778
10
16.7178462
20
15.3681996
40
5.1531974
50
44.8070473
51
53.8654279
0
ARC
8
DEFAULT_255_2_778
10
16.7712036
20
15.4400637
40
5.0636935
50
53.8735306
51
65.1074919
0
ARC
8
DEFAULT_255_2_778
10
16.7693338
20
15.4326486
40
5.071207
50
65.1235933
51
81.5409605
0
ARC
8
DEFAULT_255_2_778
10
16.7637166
20
15.4015392
40
5.1028042
50
81.5299586
51
90.001224
0
ARC
8
DEFAULT_255_2_778
10
16.762215
20
15.4162338
40
5.0881099
50
89.9843177
51
111.1177284
0
ARC
8
DEFAULT_255_2_778
10
16.7524659
20
15.4466302
40
5.0562425
50
111.1387723
51
123.0600993
0
ARC
8
DEFAULT_255_2_778
10
16.7854442
20
15.397527
40
5.115386
50
123.069646
51
132.5310204
0
ARC
8
DEFAULT_255_2_778
10
16.8465153
20
15.328727
40
5.2073694
50
132.5144718
51
135.1728466
0
ARC
8
DEFAULT_255_2_778
10
5.9366307
20
9.9258197
40
1.2797397
50
135.1115745
51
156.4679629
0
ARC
8
DEFAULT_255_2_778
10
5.9490783
20
9.9217669
40
1.2927708
50
156.5235466
51
180.0315111
0
LINE
8
DEFAULT_255_2_778
10
4.6563076
20
9.921056
11
4.6563076
21
9.9208982
0
ARC
8
DEFAULT_255_2_778
10
5.9437093
20
9.919437
40
1.2874024
50
179.9349679
51
213.5601543
0
ARC
8
DEFAULT_255_2_778
10
5.9424053
20
9.9208357
40
1.2870905
50
213.64413
51
224.8526721
0
ARC
8
DEFAULT_255_2_778
10
5.9341811
20
9.9099285
40
1.273569
50
224.7657572
51
244.9539364
0
ARC
8
DEFAULT_255_2_778
10
5.9319773
20
9.9086178
40
1.2714495
50
245.018903
51
270.0243625
0
ARC
8
DEFAULT_255_2_778
10
5.933501
20
9.9058702
40
1.2687021
50
269.9583315
51
302.8375498
0
ARC
8
DEFAULT_255_2_778
10
5.9253164
20
9.9162876
40
1.2818938
50
302.8924277
51
315.2029684
0
ARC
8
DEFAULT_255_2_778
10
16.7775299
20
15.3789397
40
2.5624327
50
121.8328888
51
135.2172969
0
ARC
8
DEFAULT_255_2_778
10
16.7590781
20
15.4059809
40
2.529727
50
101.997296
51
121.800869
0
ARC
8
DEFAULT_255_2_778
10
16.7635346
20
15.3869374
40
2.5492809
50
90.003782
51
102.0063016
0
LINE
8
DEFAULT_255_2_778
10
16.7633663
20
17.9362184
11
16.7636826
21
17.9362185
0
ARC
8
DEFAULT_255_2_778
10
16.7648948
20
15.3965535
40
2.5396653
50
63.5827228
51
90.0273467
0
ARC
8
DEFAULT_255_2_778
10
16.763019
20
15.397427
40
2.5397184
50
48.9158757
51
63.5360567
0
ARC
8
DEFAULT_255_2_778
10
16.7275039
20
15.3549288
40
2.5950909
50
44.8139981
51
48.9414646
0
ARC
8
DEFAULT_255_2_778
10
19.4711969
20
18.081017
40
1.2726485
50
224.8188372
51
269.998231
0
ARC
8
DEFAULT_255_2_778
10
19.4711942
20
18.0810752
40
1.2727068
50
269.9983557
51
315.1800702
0
ARC
8
DEFAULT_255_2_778
10
19.4646372
20
18.0890077
40
1.2829496
50
315.1351949
51
336.2581998
0
ARC
8
DEFAULT_255_2_778
10
19.4558945
20
18.0914536
40
1.2919378
50
336.3150162
51
359.9862137
0
ARC
8
DEFAULT_255_2_778
10
19.6178564
20
18.0918558
40
1.1299761
50
359.9638436
51
0.0120521
0
ARC
8
DEFAULT_255_2_778
10
19.4616684
20
18.0936007
40
1.2861651
50
359.932856
51
33.2290812
0
ARC
8
DEFAULT_255_2_778
10
19.4610025
20
18.0910505
40
1.2881209
50
33.3077342
51
44.8667302
0
ARC
8
DEFAULT_255_2_778
10
22.1792183
20
9.9319199
40
1.2726485
50
44.8188372
51
89.998231
0
ARC
8
DEFAULT_255_2_778
10
22.1792931
20
9.9316888
40
1.2728797
50
90.0015961
51
135.1768337
0
ARC
8
DEFAULT_255_2_778
10
11.3480213
20
4.4483374
40
2.5425691
50
269.9985654
51
315.2353091
0
ARC
8
DEFAULT_255_2_778
10
11.3478978
20
4.4481069
40
2.5423384
50
224.7625284
51
270.0013493
0
ARC
8
DEFAULT_255_2_778
10
8.6386507
20
1.7611517
40
1.2733854
50
44.7648736
51
64.9520668
0
ARC
8
DEFAULT_255_2_778
10
8.6409937
20
1.7627224
40
1.2709712
50
65.0177766
51
90.0247285
0
LINE
8
DEFAULT_255_2_778
10
8.6404451
20
3.0336935
11
8.640287
21
3.0336934
0
ARC
8
DEFAULT_255_2_778
10
8.6395021
20
1.7649032
40
1.2687905
50
89.9645571
51
122.8350999
0
ARC
8
DEFAULT_255_2_778
10
8.6478828
20
1.7541085
40
1.2824053
50
122.8882024
51
135.1916125
0
ARC
8
DEFAULT_255_2_778
10
8.6496245
20
1.7509135
40
1.2858933
50
135.1453084
51
155.894177
0
ARC
8
DEFAULT_255_2_778
10
8.6536058
20
1.7506192
40
1.2896482
50
155.9544808
51
180.0190362
0
LINE
8
DEFAULT_255_2_778
10
7.3639576
20
1.7501907
11
7.3639576
21
1.750031
0
ARC
8
DEFAULT_255_2_778
10
8.6498605
20
1.748828
40
1.2859034
50
179.9464014
51
213.0646974
0
ARC
8
DEFAULT_255_2_778
10
8.6557807
20
1.7543825
40
1.2938962
50
213.1277993
51
224.8243729
0
ARC
8
DEFAULT_255_2_778
10
11.3483096
20
4.4233532
40
5.0850847
50
224.7676167
51
270.0005418
0
ARC
8
DEFAULT_255_2_778
10
11.3484096
20
4.423584
40
5.0853156
50
269.9994149
51
315.2313
0
ARC
8
DEFAULT_255_2_778
10
22.1750431
20
9.9164718
40
1.2800904
50
315.1111267
51
336.4616461
0
ARC
8
DEFAULT_255_2_778
10
22.1629871
20
9.9203572
40
1.2926956
50
336.5171647
51
0.0239769
0
LINE
8
DEFAULT_255_2_778
10
23.4556826
20
9.9208982
11
23.4556826
21
9.921056
0
ARC
8
DEFAULT_255_2_778
10
22.1686692
20
9.9226839
40
1.2870145
50
359.9275281
51
33.5670756
0
ARC
8
DEFAULT_255_2_778
10
22.1699188
20
9.9212426
40
1.2867715
50
33.6513126
51
44.8642046
0
ARC
8
DEFAULT_255_2_778
10
22.1794982
20
9.9707837
40
5.0855848
50
44.7683765
51
89.9982036
0
ARC
8
DEFAULT_255_2_778
10
22.1796728
20
9.97113
40
5.0852384
50
90.0001703
51
135.2332489
0
ARC
8
DEFAULT_255_2_778
10
11.3509282
20
4.4783034
40
1.2786877
50
135.0825531
51
156.4532681
0
ARC
8
DEFAULT_255_2_778
10
11.3634232
20
4.4742411
40
1.2917658
50
156.5094965
51
180.0320542
0
ARC
8
DEFAULT_255_2_778
10
10.5690521
20
4.4733608
40
0.4973945
50
179.9818339
51
180.0544982
0
ARC
8
DEFAULT_255_2_778
10
11.3587916
20
4.4719677
40
1.2871341
50
179.9590485
51
213.2200006
0
ARC
8
DEFAULT_255_2_778
10
11.3575316
20
4.4733685
40
1.2868488
50
213.3029118
51
224.8654415
0
ARC
8
DEFAULT_255_2_778
10
11.3500814
20
4.4631606
40
1.2743688
50
224.7764531
51
245.2975707
0
ARC
8
DEFAULT_255_2_778
10
11.347977
20
4.4619128
40
1.2723566
50
245.3601793
51
269.9896103
0
LINE
8
DEFAULT_255_2_778
10
11.3477463
20
3.1895561
11
11.3484646
21
3.1895559
0
ARC
8
DEFAULT_255_2_778
10
11.3495326
20
4.4575385
40
1.267983
50
269.9517405
51
302.8500818
0
ARC
8
DEFAULT_255_2_778
10
11.3416529
20
4.4673498
40
1.2805003
50
302.9081422
51
315.2317081
0
ARC
8
DEFAULT_255_2_778
10
22.1791415
20
9.9457489
40
2.5429195
50
90.0018898
51
135.2256691
0
ARC
8
DEFAULT_255_2_778
10
22.179118
20
9.9460952
40
2.5425733
50
44.7710808
51
90.0013604
0
ARC
8
DEFAULT_255_2_778
10
22.1485021
20
9.9154846
40
2.5858666
50
31.132322
51
44.7748294
0
ARC
8
DEFAULT_255_2_778
10
22.1635772
20
9.926578
40
2.5672277
50
10.5131915
51
31.0943462
0
ARC
8
DEFAULT_255_2_778
10
22.1390222
20
9.9211532
40
2.5923604
50
0.0008332
51
10.5320529
0
LINE
8
DEFAULT_255_2_778
10
24.7313826
20
9.9211909
11
24.7313826
21
9.921031
0
ARC
8
DEFAULT_255_2_778
10
22.1517682
20
9.9195279
40
2.5796149
50
333.5311003
51
0.0333842
0
ARC
8
DEFAULT_255_2_778
10
22.1616386
20
9.9172545
40
2.5697671
50
318.6804345
51
333.4783867
0
ARC
8
DEFAULT_255_2_778
10
22.1244021
20
9.9485119
40
2.6183714
50
315.2570398
51
318.7047266
0
ARC
8
DEFAULT_255_2_778
10
17.8358125
20
1.8966682
40
2.5627506
50
224.7999376
51
238.182608
0
ARC
8
DEFAULT_255_2_778
10
17.817582
20
1.8699915
40
2.5304716
50
238.21491
51
258.0144898
0
ARC
8
DEFAULT_255_2_778
10
17.8221875
20
1.889712
40
2.5507185
50
258.0052847
51
270.0035413
0
LINE
8
DEFAULT_255_2_778
10
17.8223451
20
-0.6610065
11
17.8234544
21
-0.6610063
0
ARC
8
DEFAULT_255_2_778
10
17.8234915
20
1.8812684
40
2.5422747
50
269.9991645
51
296.3187971
0
ARC
8
DEFAULT_255_2_778
10
17.8213099
20
1.8811453
40
2.5431322
50
296.3640818
51
311.0287433
0
ARC
8
DEFAULT_255_2_778
10
17.7857182
20
1.9238334
40
2.5986993
50
311.0028948
51
315.1430325
0
ARC
8
DEFAULT_255_2_778
10
22.127309
20
9.9313536
40
5.1655297
50
315.1597147
51
324.5589855
0
ARC
8
DEFAULT_255_2_778
10
22.1734056
20
9.8973168
40
5.1082376
50
324.5702076
51
336.4605754
0
ARC
8
DEFAULT_255_2_778
10
22.1270952
20
9.9151762
40
5.1578274
50
336.4841492
51
354.9260523
0
ARC
8
DEFAULT_255_2_778
10
22.0878625
20
9.9206986
40
5.1973951
50
354.9036632
51
359.9951231
0
LINE
8
DEFAULT_255_2_778
10
27.2852576
20
9.9202562
11
27.2852576
21
9.920731
0
ARC
8
DEFAULT_255_2_778
10
22.113526
20
9.9228824
40
5.171732
50
359.9761649
51
21.5708922
0
ARC
8
DEFAULT_255_2_778
10
22.1736545
20
9.9439113
40
5.1080843
50
21.5994979
51
33.8247898
0
ARC
8
DEFAULT_255_2_778
10
22.1408589
20
9.9206138
40
5.1482977
50
33.8370139
51
43.4610222
0
ARC
8
DEFAULT_255_2_778
10
22.0866954
20
9.8713676
40
5.2214867
50
43.4444314
51
44.8257191
0
LINE
8
DEFAULT_255_2_778
10
15.8612576
20
16.2764685
11
7.7380576
21
8.1050685
0
LINE
8
DEFAULT_255_2_778
10
4.1277576
20
11.7369685
11
12.0946576
21
19.7509685
0
LINE
8
DEFAULT_255_2_778
10
8.4841576
20
19.7509685
11
2.3219576
21
13.5525685
0
LINE
8
DEFAULT_255_2_778
10
9.5427576
20
6.2889685
11
17.6662576
21
14.4603685
0
LINE
8
DEFAULT_255_2_778
10
17.6662576
20
16.2761685
11
17.6662576
21
16.2761685
0
LINE
8
DEFAULT_255_2_778
10
17.6662576
20
16.2761685
11
17.6662576
21
16.2764685
0
LINE
8
DEFAULT_255_2_778
10
13.1532576
20
18.9997685
11
5.0299576
21
10.8289685
0
LINE
8
DEFAULT_255_2_778
10
6.8349576
20
9.0130685
11
14.9587576
21
17.1839685
0
LINE
8
DEFAULT_255_2_778
10
20.3739576
20
18.9997685
11
20.3739576
21
18.9997685
0
LINE
8
DEFAULT_255_2_778
10
20.3739576
20
18.9997685
11
20.3739576
21
18.9997685
0
LINE
8
DEFAULT_255_2_778
10
21.2764576
20
10.8289685
11
13.1532576
21
2.6578685
0
LINE
8
DEFAULT_255_2_778
10
14.9587576
20
0.8422685
11
23.0819576
21
9.0130685
0
LINE
8
DEFAULT_255_2_778
10
23.0819576
20
10.8289685
11
23.0819576
21
10.8289685
0
LINE
8
DEFAULT_255_2_778
10
23.0819576
20
10.8289685
11
23.0819576
21
10.8289685
0
LINE
8
DEFAULT_255_2_778
10
18.5692576
20
13.5522685
11
10.4454576
21
5.3811685
0
LINE
8
DEFAULT_255_2_778
10
12.2507576
20
3.5655685
11
20.3739576
21
11.7367685
0
LINE
8
DEFAULT_255_2_778
10
23.9841576
20
8.1053685
11
16.0173576
21
0.0908685
0
LINE
8
DEFAULT_255_2_778
10
19.6278576
20
0.0908685
11
25.7900576
21
6.2889685
0
LINE
8
DEFAULT_255_2_778
10
25.7900576
20
13.5522685
11
25.7900576
21
13.5522685
0
LINE
8
DEFAULT_255_2_778
10
25.7900576
20
13.5522685
11
25.7900576
21
13.5522685
0
ENDSEC
0
EOF