0
SECTION
2
HEADER
9
$MEASUREMENT
70
1
0
ENDSEC
0
SECTION
2
TABLES
0
TABLE
2
LTYPE
0
LTYPE
72
65
70
64
2
CONTINUOUS
3
______
73
0
40
0
0
ENDTAB
0
TABLE
2
LAYER
0
LAYER
2
DEFAULT_255_2_778
70
0
62
255
6
CONTINUOUS
0
ENDTAB
0
ENDSEC
0
SECTION
2
ENTITIES
0
LINE
8
DEFAULT_255_2_778
10
0.4961242
20
20.505253
11
16.2587242
21
20.505253
0
LINE
8
DEFAULT_255_2_778
10
16.2587242
20
20.505253
11
8.3796242
21
12.644753
0
LINE
8
DEFAULT_255_2_778
10
8.3796242
20
12.644753
11
0.4961242
21
20.505253
0
ARC
8
DEFAULT_255_2_778
10
8.6195419
20
7.0691867
40
7.7220903
50
200.6992761
51
222.7072442
0
ARC
8
DEFAULT_255_2_778
10
8.6447294
20
7.0838235
40
7.7505288
50
222.6604649
51
247.3387116
0
ARC
8
DEFAULT_255_2_778
10
8.6160445
20
7.0262645
40
7.686363
50
247.3707189
51
260.7246863
0
ARC
8
DEFAULT_255_2_778
10
8.6331357
20
7.1383844
40
7.7997716
50
260.7335282
51
270.0212183
0
ARC
8
DEFAULT_255_2_778
10
8.6396607
20
7.1239523
40
7.7853398
50
269.9732369
51
280.8096914
0
ARC
8
DEFAULT_255_2_778
10
8.6555302
20
7.0290751
40
7.6891703
50
280.8261297
51
295.1257474
0
ARC
8
DEFAULT_255_2_778
10
8.6249042
20
7.0898809
40
7.7572268
50
295.1398523
51
338.0259483
0
ARC
8
DEFAULT_255_2_778
10
8.7241673
20
7.038401
40
7.6459191
50
338.1053591
51
351.6277549
0
ARC
8
DEFAULT_255_2_778
10
8.616964
20
7.053375
40
7.7541604
50
351.6336276
51
0.0172782
0
ARC
8
DEFAULT_255_2_778
10
8.6188915
20
7.0593764
40
7.7522335
50
359.9729269
51
10.6546767
0
ARC
8
DEFAULT_255_2_778
10
8.7194672
20
7.0761096
40
7.6502984
50
10.6707834
51
24.7602638
0
ARC
8
DEFAULT_255_2_778
10
8.6394634
20
7.0331097
40
7.7409587
50
24.8012648
51
67.2836766
0
ARC
8
DEFAULT_255_2_778
10
8.6740073
20
7.0992592
40
7.6666035
50
67.3309043
51
69.4671583
0
LINE
8
DEFAULT_255_2_778
10
11.3628242
20
14.2788133
11
1.3959242
21
4.3397133
0
LINE
8
DEFAULT_255_2_778
10
11.3630242
20
14.2788133
11
11.3630242
21
14.2788133
0
LINE
8
DEFAULT_255_2_778
10
11.3630242
20
14.2788133
11
11.3628242
21
14.2788133
0
ENDSEC
0
EOF