0
SECTION
2
HEADER
9
$MEASUREMENT
70
1
0
ENDSEC
0
SECTION
2
TABLES
0
TABLE
2
LTYPE
0
LTYPE
72
65
70
64
2
CONTINUOUS
3
______
73
0
40
0
0
ENDTAB
0
TABLE
2
LAYER
0
LAYER
2
DEFAULT_255_2_778
70
0
62
255
6
CONTINUOUS
0
ENDTAB
0
ENDSEC
0
SECTION
2
ENTITIES
0
ARC
8
DEFAULT_255_2_778
10
17.031019
20
7.9476598
40
2.9002936
50
65.0671995
51
76.2746257
0
ARC
8
DEFAULT_255_2_778
10
17.1313043
20
8.2128772
40
2.6176012
50
44.5693444
51
64.6104949
0
ARC
8
DEFAULT_255_2_778
10
16.6509793
20
7.693695
40
3.3242948
50
43.9853578
51
45.1344634
0
ARC
8
DEFAULT_255_2_778
10
16.6486782
20
7.7669903
40
3.2754995
50
41.0706671
51
43.0348683
0
ARC
8
DEFAULT_255_2_778
10
15.4492165
20
6.7187173
40
4.8684782
50
39.4506747
51
41.0972562
0
ARC
8
DEFAULT_255_2_778
10
14.7904745
20
6.1730201
40
5.7238844
50
38.3192693
51
39.4786853
0
ARC
8
DEFAULT_255_2_778
10
15.3808021
20
6.6305842
40
4.977028
50
35.7157963
51
38.4002954
0
ARC
8
DEFAULT_255_2_778
10
17.4004236
20
8.0799475
40
2.4911649
50
32.7675814
51
35.766711
0
ARC
8
DEFAULT_255_2_778
10
18.7947956
20
8.9725
40
0.835607
50
27.3785452
51
33.0525602
0
ARC
8
DEFAULT_255_2_778
10
19.3745502
20
9.2710131
40
0.1835221
50
16.6618437
51
27.8575577
0
ARC
8
DEFAULT_255_2_778
10
19.549097
20
9.3233318
40
0.0013052
50
359.5938368
51
13.3450237
0
ARC
8
DEFAULT_255_2_778
10
19.5094972
20
9.345425
40
0.0464945
50
304.1055656
51
331.6160212
0
ARC
8
DEFAULT_255_2_778
10
18.9751473
20
9.9647566
40
0.8641818
50
306.7502343
51
310.4284576
0
ARC
8
DEFAULT_255_2_778
10
17.5336251
20
11.8635349
40
3.2481387
50
305.797406
51
307.0841476
0
ARC
8
DEFAULT_255_2_778
10
14.7579296
20
15.7080819
40
7.9899761
50
304.9150282
51
305.815933
0
ARC
8
DEFAULT_255_2_778
10
10.0363442
20
22.4612051
40
16.2300017
50
304.3454034
51
304.9379193
0
ARC
8
DEFAULT_255_2_778
10
3.6830418
20
31.7560008
40
27.4886727
50
303.81195
51
304.3488862
0
ARC
8
DEFAULT_255_2_778
10
-1.9182036
20
40.1103306
40
37.5469409
50
303.2594043
51
303.8195388
0
ARC
8
DEFAULT_255_2_778
10
-2.3830274
20
40.8129012
40
38.3893515
50
303.1450416
51
303.2644381
0
ARC
8
DEFAULT_255_2_778
10
-0.1757087
20
37.4214258
40
34.3428321
50
302.6094837
51
303.1553191
0
ARC
8
DEFAULT_255_2_778
10
4.3499288
20
30.3539786
40
25.9505626
50
302.2599708
51
302.6017318
0
ARC
8
DEFAULT_255_2_778
10
7.8595855
20
24.7913916
40
19.3733243
50
301.8358348
51
302.2635419
0
ARC
8
DEFAULT_255_2_778
10
18.0740624
20
8.3398852
40
0.0087285
50
268.3140664
51
302.6149528
0
ARC
8
DEFAULT_255_2_778
10
18.0923576
20
8.4036761
40
0.0748511
50
221.0263921
51
255.6495696
0
ARC
8
DEFAULT_255_2_778
10
18.495892
20
8.837263
40
0.6667988
50
217.8794187
51
226.3804066
0
ARC
8
DEFAULT_255_2_778
10
19.328066
20
9.5062019
40
1.7344509
50
213.8239107
51
218.4423378
0
ARC
8
DEFAULT_255_2_778
10
16.3566182
20
7.5087052
40
1.8459851
50
33.9912433
51
43.9700906
0
ARC
8
DEFAULT_255_2_778
10
16.8847298
20
8.028804
40
1.1048328
50
43.5729733
51
83.1551773
0
ARC
8
DEFAULT_255_2_778
10
16.7777833
20
7.4451927
40
1.6974257
50
81.9186836
51
86.1225728
0
ARC
8
DEFAULT_255_2_778
10
16.7807317
20
7.5051897
40
1.6373671
50
86.0835398
51
88.9813938
0
ARC
8
DEFAULT_255_2_778
10
16.7827949
20
7.5941656
40
1.5483686
50
88.9991999
51
89.9975889
0
ARC
8
DEFAULT_255_2_778
10
16.772561
20
7.8767612
40
1.2658149
50
89.5338203
51
104.8681838
0
ARC
8
DEFAULT_255_2_778
10
16.66501
20
8.2633903
40
0.8645465
50
104.5538777
51
130.4385906
0
ARC
8
DEFAULT_255_2_778
10
16.6086591
20
8.3502214
40
0.7620267
50
131.448629
51
170.6823753
0
ARC
8
DEFAULT_255_2_778
10
16.854934
20
8.2950458
40
1.0140903
50
169.8589308
51
180.1781407
0
ARC
8
DEFAULT_255_2_778
10
16.9765688
20
8.2918979
40
1.1357203
50
180.0002534
51
180.3261464
0
ARC
8
DEFAULT_255_2_778
10
16.9054981
20
8.2751068
40
1.0646812
50
179.4442875
51
187.4975193
0
ARC
8
DEFAULT_255_2_778
10
16.5218623
20
8.2293367
40
0.6783692
50
187.8927365
51
197.6514659
0
ARC
8
DEFAULT_255_2_778
10
16.7226934
20
8.2995014
40
0.8910406
50
198.0349644
51
206.1598348
0
ARC
8
DEFAULT_255_2_778
10
17.197372
20
8.5205334
40
1.4145865
50
205.7190062
51
206.523309
0
ARC
8
DEFAULT_255_2_778
10
16.6809506
20
8.2446445
40
0.8294744
50
205.4015837
51
224.6037074
0
ARC
8
DEFAULT_255_2_778
10
16.8427458
20
8.4037606
40
1.0564008
50
224.586093
51
231.2338088
0
ARC
8
DEFAULT_255_2_778
10
17.1670633
20
8.8115689
40
1.5774434
50
231.3236618
51
237.4797613
0
ARC
8
DEFAULT_255_2_778
10
17.7495001
20
9.7182898
40
2.6551113
50
237.4007636
51
241.2714568
0
ARC
8
DEFAULT_255_2_778
10
18.6495791
20
11.3524164
40
4.5207219
50
241.2229729
51
243.7308854
0
ARC
8
DEFAULT_255_2_778
10
19.9512112
20
13.975181
40
7.4487103
50
243.6816373
51
245.1303837
0
ARC
8
DEFAULT_255_2_778
10
21.6512485
20
17.6314741
40
11.4809047
50
245.1068459
51
245.9865102
0
ARC
8
DEFAULT_255_2_778
10
24.0330137
20
22.9737141
40
17.3300355
50
245.9812572
51
246.6271608
0
ARC
8
DEFAULT_255_2_778
10
7.0597089
20
-16.4258354
40
25.5700724
50
66.0036182
51
66.7387103
0
ARC
8
DEFAULT_255_2_778
10
9.4202932
20
-11.1209431
40
19.763676
50
65.2253302
51
66.0012225
0
ARC
8
DEFAULT_255_2_778
10
11.3821812
20
-6.8793622
40
15.090348
50
64.0040566
51
65.2400765
0
ARC
8
DEFAULT_255_2_778
10
13.1135063
20
-3.3325986
40
11.1435753
50
62.4050721
51
64.0122073
0
ARC
8
DEFAULT_255_2_778
10
14.4275508
20
-0.8194786
40
8.3076479
50
60.48072
51
62.4081306
0
ARC
8
DEFAULT_255_2_778
10
15.4508132
20
0.9843545
40
6.2337926
50
57.9155915
51
60.4959275
0
ARC
8
DEFAULT_255_2_778
10
16.248185
20
2.2556785
40
4.733104
50
54.8152879
51
57.91922
0
ARC
8
DEFAULT_255_2_778
10
16.8552762
20
3.1152258
40
3.6807828
50
50.7911434
51
54.8291633
0
ARC
8
DEFAULT_255_2_778
10
17.3276237
20
3.6924159
40
2.9349549
50
45.1014674
51
50.8131398
0
ARC
8
DEFAULT_255_2_778
10
17.6191141
20
3.9858676
40
2.5213366
50
35.8808187
51
45.0865962
0
ARC
8
DEFAULT_255_2_778
10
17.572328
20
3.9533316
40
2.578314
50
33.3943902
51
35.8572761
0
ARC
8
DEFAULT_255_2_778
10
17.8247248
20
4.1331229
40
2.2686582
50
20.9521698
51
33.1118016
0
ARC
8
DEFAULT_255_2_778
10
17.1740125
20
3.8821295
40
2.9660976
50
8.8889017
51
20.9852081
0
ARC
8
DEFAULT_255_2_778
10
16.8192103
20
3.8170907
40
3.3267015
50
0.9598905
51
9.0513832
0
ARC
8
DEFAULT_255_2_778
10
16.8170019
20
3.8164454
40
3.3289205
50
0.0003049
51
0.9703589
0
ARC
8
DEFAULT_255_2_778
10
17.0196828
20
3.8088819
40
3.1262487
50
348.0154036
51
0.1389432
0
ARC
8
DEFAULT_255_2_778
10
17.5493355
20
3.6997993
40
2.5854917
50
339.4477531
51
347.9427909
0
ARC
8
DEFAULT_255_2_778
10
17.7510099
20
3.6488428
40
2.3788765
50
305.4745109
51
338.891693
0
ARC
8
DEFAULT_255_2_778
10
17.3575019
20
4.1654369
40
3.0280164
50
293.1204213
51
305.8654771
0
ARC
8
DEFAULT_255_2_778
10
17.0541031
20
4.8666473
40
3.7920426
50
283.477558
51
293.1761684
0
ARC
8
DEFAULT_255_2_778
10
16.8855967
20
5.5222793
40
4.4689058
50
279.5674477
51
283.6193774
0
ARC
8
DEFAULT_255_2_778
10
17.3222491
20
2.891038
40
1.8017009
50
276.5096304
51
279.7822921
0
ARC
8
DEFAULT_255_2_778
10
17.1612423
20
4.2767705
40
3.1967538
50
274.215422
51
276.5610337
0
ARC
8
DEFAULT_255_2_778
10
17.0153146
20
6.2543744
40
5.1797343
50
272.0546668
51
274.2172565
0
ARC
8
DEFAULT_255_2_778
10
16.9300145
20
8.5759609
40
7.5028867
50
269.9590507
51
272.0700119
0
ARC
8
DEFAULT_255_2_778
10
16.9249885
20
9.5728077
40
8.4997315
50
269.2000551
51
269.9977326
0
ARC
8
DEFAULT_255_2_778
10
16.9145297
20
9.1381199
40
8.0649412
50
266.8690875
51
269.2312362
0
ARC
8
DEFAULT_255_2_778
10
16.7866405
20
6.8345815
40
5.7578564
50
264.6714359
51
266.8878416
0
ARC
8
DEFAULT_255_2_778
10
16.575152
20
4.5795239
40
3.4929039
50
262.1190759
51
264.6903691
0
ARC
8
DEFAULT_255_2_778
10
16.3835148
20
3.1809729
40
2.0812866
50
259.8228319
51
262.0658136
0
ARC
8
DEFAULT_255_2_778
10
16.7611634
20
5.3067251
40
4.240322
50
241.4992297
51
259.8754988
0
ARC
8
DEFAULT_255_2_778
10
16.4376492
20
4.7227272
40
3.5727314
50
229.3984045
51
241.5896963
0
ARC
8
DEFAULT_255_2_778
10
15.9761599
20
4.1704301
40
2.8530773
50
222.1844484
51
229.2167587
0
ARC
8
DEFAULT_255_2_778
10
15.2426144
20
3.4982846
40
1.858179
50
219.702119
51
222.0160651
0
ARC
8
DEFAULT_255_2_778
10
16.4110476
20
4.4690119
40
3.3772405
50
217.7583352
51
219.7099807
0
ARC
8
DEFAULT_255_2_778
10
18.0620721
20
5.7497942
40
5.466806
50
216.0416089
51
217.7752254
0
ARC
8
DEFAULT_255_2_778
10
19.0823912
20
6.4982353
40
6.7321897
50
215.1501794
51
216.0829206
0
ARC
8
DEFAULT_255_2_778
10
18.6262802
20
6.1844932
40
6.1786273
50
212.9505322
51
215.2064032
0
ARC
8
DEFAULT_255_2_778
10
16.2381472
20
4.6387658
40
3.3339047
50
210.6906568
51
212.9824693
0
ARC
8
DEFAULT_255_2_778
10
14.4578508
20
3.5857743
40
1.2655189
50
207.0271421
51
210.8338729
0
ARC
8
DEFAULT_255_2_778
10
13.5683435
20
3.1369977
40
0.2692602
50
197.5889922
51
207.9713175
0
ARC
8
DEFAULT_255_2_778
10
13.3517924
20
3.0676361
40
0.0418785
50
182.0981019
51
196.6586467
0
ARC
8
DEFAULT_255_2_778
10
13.3210703
20
3.0664708
40
0.0111344
50
159.4682656
51
181.893483
0
ARC
8
DEFAULT_255_2_778
10
13.316112
20
3.0680897
40
0.0059275
50
150.2276957
51
157.3135894
0
ARC
8
DEFAULT_255_2_778
10
13.3929494
20
2.9919198
40
0.1139299
50
122.3924281
51
136.0203653
0
ARC
8
DEFAULT_255_2_778
10
14.1808928
20
1.8481405
40
1.5027698
50
121.1308293
51
124.3982483
0
ARC
8
DEFAULT_255_2_778
10
16.4536689
20
-1.8541939
40
5.8470232
50
120.2740954
51
121.4383936
0
ARC
8
DEFAULT_255_2_778
10
16.4167647
20
4.7283397
40
1.6632405
50
213.3721451
51
217.5692478
0
ARC
8
DEFAULT_255_2_778
10
17.0619353
20
5.222271
40
2.475774
50
217.5258561
51
220.940326
0
ARC
8
DEFAULT_255_2_778
10
17.4532623
20
5.5561613
40
2.9901717
50
220.8597011
51
221.8459219
0
ARC
8
DEFAULT_255_2_778
10
17.8034085
20
5.875649
40
3.4641527
50
221.9188076
51
227.8369696
0
ARC
8
DEFAULT_255_2_778
10
17.3636075
20
5.3826606
40
2.8035222
50
227.7364679
51
232.0818429
0
ARC
8
DEFAULT_255_2_778
10
16.6994194
20
4.527983
40
1.7211096
50
232.0399459
51
236.8521772
0
ARC
8
DEFAULT_255_2_778
10
16.2874441
20
3.8984345
40
0.9687439
50
236.8932102
51
241.8807355
0
ARC
8
DEFAULT_255_2_778
10
16.8032918
20
4.9284275
40
2.1205076
50
242.7044089
51
264.4757114
0
ARC
8
DEFAULT_255_2_778
10
16.8294259
20
5.065895
40
2.2598887
50
264.1517187
51
269.9861425
0
ARC
8
DEFAULT_255_2_778
10
16.8357741
20
4.8590715
40
2.0530768
50
269.8075853
51
282.9791127
0
ARC
8
DEFAULT_255_2_778
10
16.9464285
20
4.3873281
40
1.568534
50
282.9105948
51
296.3196419
0
ARC
8
DEFAULT_255_2_778
10
17.139571
20
3.997491
40
1.1334743
50
296.3057459
51
311.481997
0
ARC
8
DEFAULT_255_2_778
10
17.3209895
20
3.7965227
40
0.8627517
50
311.2964533
51
331.7311573
0
ARC
8
DEFAULT_255_2_778
10
17.3785958
20
3.7403282
40
0.7857157
50
333.3509375
51
357.975229
0
ARC
8
DEFAULT_255_2_778
10
16.9202611
20
3.7821741
40
1.2455064
50
356.7962906
51
0.0533113
0
ARC
8
DEFAULT_255_2_778
10
16.4501979
20
3.7947463
40
1.7156071
50
359.6188299
51
4.4378178
0
ARC
8
DEFAULT_255_2_778
10
17.4877174
20
3.8838206
40
0.6743598
50
3.7133169
51
22.4531401
0
ARC
8
DEFAULT_255_2_778
10
17.3629079
20
3.8196672
40
0.8142927
50
23.2709181
51
31.8844328
0
ARC
8
DEFAULT_255_2_778
10
16.7573023
20
3.4516664
40
1.5229204
50
31.6056331
51
34.8052838
0
ARC
8
DEFAULT_255_2_778
10
17.3614223
20
3.8680675
40
0.7892076
50
35.0172541
51
42.141141
0
ARC
8
DEFAULT_255_2_778
10
17.2948021
20
3.809067
40
0.8781934
50
42.0791019
51
44.3444404
0
ARC
8
DEFAULT_255_2_778
10
17.0872752
20
3.5941705
40
1.1768443
50
44.7645218
51
54.1802177
0
ARC
8
DEFAULT_255_2_778
10
16.5080235
20
2.8029156
40
2.1574529
50
54.0043833
51
59.2638867
0
ARC
8
DEFAULT_255_2_778
10
15.5910341
20
1.2736847
40
3.9405381
50
59.1677255
51
62.3263993
0
ARC
8
DEFAULT_255_2_778
10
14.1559691
20
-1.449845
40
7.0190127
50
62.2773836
51
64.2806427
0
ARC
8
DEFAULT_255_2_778
10
12.0724636
20
-5.754927
40
11.8017608
50
64.2377003
51
65.3896994
0
ARC
8
DEFAULT_255_2_778
10
9.3792119
20
-11.6198741
40
18.2555335
50
65.3703139
51
66.0745288
0
ARC
8
DEFAULT_255_2_778
10
5.6973907
20
-19.9135022
40
27.3296766
50
66.0703527
51
66.5957674
0
ARC
8
DEFAULT_255_2_778
10
25.4271075
20
25.7800814
40
22.4414761
50
246.1465226
51
246.7074618
0
ARC
8
DEFAULT_255_2_778
10
23.0526405
20
20.4187659
40
16.5778781
50
245.2379065
51
246.1587403
0
ARC
8
DEFAULT_255_2_778
10
21.0725145
20
16.1302363
40
11.8542797
50
243.9747526
51
245.246637
0
ARC
8
DEFAULT_255_2_778
10
19.5732041
20
13.0644299
40
8.4414958
50
242.1778223
51
243.9890492
0
ARC
8
DEFAULT_255_2_778
10
18.4752405
20
10.9859412
40
6.0908282
50
239.8010345
51
242.1867445
0
ARC
8
DEFAULT_255_2_778
10
17.8510053
20
9.9066531
40
4.844025
50
238.0907455
51
239.7611714
0
ARC
8
DEFAULT_255_2_778
10
17.360061
20
9.1267793
40
3.9225025
50
234.0216753
51
238.1569695
0
ARC
8
DEFAULT_255_2_778
10
17.0247599
20
8.6579178
40
3.3461014
50
222.578813
51
233.9513418
0
ARC
8
DEFAULT_255_2_778
10
16.1819542
20
7.8749964
40
2.1957852
50
214.0936818
51
222.4155565
0
ARC
8
DEFAULT_255_2_778
10
16.8518389
20
8.3372364
40
3.009648
50
204.0433845
51
214.2324429
0
ARC
8
DEFAULT_255_2_778
10
16.4447972
20
8.159535
40
2.5655243
50
198.5036948
51
204.1228178
0
ARC
8
DEFAULT_255_2_778
10
15.9256394
20
7.9825005
40
2.017023
50
195.2419759
51
198.4150821
0
ARC
8
DEFAULT_255_2_778
10
15.2149643
20
7.776429
40
1.2772273
50
189.5949759
51
194.7041445
0
ARC
8
DEFAULT_255_2_778
10
16.5342617
20
8.0046422
40
2.6161128
50
186.2368475
51
189.7070465
0
ARC
8
DEFAULT_255_2_778
10
18.3742167
20
8.2078679
40
4.4672564
50
183.1335082
51
186.2642001
0
ARC
8
DEFAULT_255_2_778
10
19.5125505
20
8.2783004
40
5.6077441
50
181.5226336
51
183.2162961
0
ARC
8
DEFAULT_255_2_778
10
19.5284742
20
8.28008
40
5.6237097
50
180.0100634
51
181.5364467
0
ARC
8
DEFAULT_255_2_778
10
18.5540637
20
8.284909
40
4.6493026
50
177.2970891
51
180.0716828
0
ARC
8
DEFAULT_255_2_778
10
16.9050789
20
8.3631438
40
2.9984629
50
174.505278
51
177.3044708
0
ARC
8
DEFAULT_255_2_778
10
15.612475
20
8.4891174
40
1.6997368
50
170.8204985
51
174.5599744
0
ARC
8
DEFAULT_255_2_778
10
14.9223008
20
8.5980139
40
1.0010325
50
168.1876081
51
170.6716725
0
ARC
8
DEFAULT_255_2_778
10
16.4553522
20
8.2772819
40
2.5672751
50
149.9703136
51
168.1850986
0
ARC
8
DEFAULT_255_2_778
10
16.3671831
20
8.3100472
40
2.474594
50
118.6670893
51
149.6054801
0
ARC
8
DEFAULT_255_2_778
10
16.6241535
20
7.866433
40
2.9871313
50
105.4231621
51
118.9099388
0
ARC
8
DEFAULT_255_2_778
10
16.7514779
20
7.444492
40
3.4277549
50
100.7372778
51
105.599103
0
ARC
8
DEFAULT_255_2_778
10
16.4047101
20
9.2384403
40
1.6006236
50
96.705792
51
100.5055572
0
ARC
8
DEFAULT_255_2_778
10
16.5488458
20
8.0337024
40
2.8139517
50
93.9368741
51
96.7561049
0
ARC
8
DEFAULT_255_2_778
10
16.65903
20
6.4675834
40
4.3839408
50
91.7299488
51
93.9682234
0
ARC
8
DEFAULT_255_2_778
10
16.7083807
20
4.9286425
40
5.9236707
50
89.9696764
51
91.7577038
0
ARC
8
DEFAULT_255_2_778
10
16.7097767
20
3.9305116
40
6.9218009
50
88.3242645
51
89.9856043
0
ARC
8
DEFAULT_255_2_778
10
16.7249584
20
4.2214108
40
6.6305854
50
85.1727299
51
88.381888
0
ARC
8
DEFAULT_255_2_778
10
16.9058672
20
6.3570567
40
4.487291
50
82.4370393
51
85.1797262
0
ARC
8
DEFAULT_255_2_778
10
17.1525489
20
8.2058057
40
2.6221576
50
79.1999806
51
82.4635138
0
ARC
8
DEFAULT_255_2_778
10
17.3593082
20
9.2995663
40
1.509029
50
76.2154466
51
79.1295986
0
ARC
8
DEFAULT_255_2_778
10
35.5268827
20
9.8707617
40
30.2288163
50
179.3792651
51
180.0114267
0
ARC
8
DEFAULT_255_2_778
10
25.556727
20
9.9808724
40
20.2580529
50
178.7802043
51
179.3851792
0
ARC
8
DEFAULT_255_2_778
10
16.5603992
20
10.1730695
40
11.2596723
50
178.1122328
51
178.7834671
0
ARC
8
DEFAULT_255_2_778
10
9.9556842
20
10.3969125
40
4.6511722
50
176.8059838
51
178.1879959
0
ARC
8
DEFAULT_255_2_778
10
6.1558421
20
10.6172676
40
0.8449957
50
172.7128754
51
177.3685199
0
ARC
8
DEFAULT_255_2_778
10
5.3487792
20
10.7233179
40
0.0311284
50
150.9498644
51
177.9188926
0
ARC
8
DEFAULT_255_2_778
10
5.33573
20
10.6907
40
0.0497899
50
89.1176303
51
106.5263791
0
ARC
8
DEFAULT_255_2_778
10
5.4119428
20
9.5704469
40
1.1724671
50
91.8496945
51
93.6894211
0
ARC
8
DEFAULT_255_2_778
10
5.5784693
20
4.7385657
40
6.0072147
50
91.0934207
51
91.9496323
0
ARC
8
DEFAULT_255_2_778
10
5.8630465
20
-9.2622925
40
20.0109613
50
90.7445236
51
91.1431036
0
ARC
8
DEFAULT_255_2_778
10
6.2234229
20
-36.1213383
40
46.8724236
50
90.5317418
51
90.7583841
0
ARC
8
DEFAULT_255_2_778
10
6.5930713
20
-74.8812968
40
85.6341441
50
90.4072769
51
90.5383792
0
ARC
8
DEFAULT_255_2_778
10
6.9135396
20
-119.2063147
40
129.9603204
50
90.3234554
51
90.4096516
0
ARC
8
DEFAULT_255_2_778
10
7.2405522
20
-177.4787816
40
188.2337047
50
90.2351316
51
90.3228588
0
ARC
8
DEFAULT_255_2_778
10
7.5685512
20
-256.9772303
40
267.7328301
50
90.1607611
51
90.2355061
0
ARC
8
DEFAULT_255_2_778
10
7.836038
20
-351.9903173
40
362.7462936
50
90.0923496
51
90.1609029
0
ARC
8
DEFAULT_255_2_778
10
7.9917223
20
-445.1549817
40
455.911088
50
90.0439192
51
90.0930434
0
ARC
8
DEFAULT_255_2_778
10
8.0521396
20
-522.8952302
40
533.6513601
50
89.9995745
51
90.044008
0
ARC
8
DEFAULT_255_2_778
10
8.0551468
20
-574.6275372
40
585.383667
50
89.9765567
51
89.9999064
0
ARC
8
DEFAULT_255_2_778
10
8.0410936
20
-607.7483821
40
618.5045147
50
89.9467442
51
89.9765102
0
ARC
8
DEFAULT_255_2_778
10
8.0128458
20
-639.6453485
40
650.4014935
50
89.9188933
51
89.9468675
0
ARC
8
DEFAULT_255_2_778
10
7.9975223
20
-652.2889636
40
663.0451177
50
89.9098413
51
89.9191158
0
LINE
8
DEFAULT_255_2_778
10
0.661467
20
9.921933
11
0.661467
21
-0.661467
0
LINE
8
DEFAULT_255_2_778
10
0.661467
20
-0.661467
11
11.244767
21
-0.661467
0
LINE
8
DEFAULT_255_2_778
10
11.244767
20
-0.661467
11
21.828167
21
-0.661467
0
LINE
8
DEFAULT_255_2_778
10
21.828167
20
-0.661467
11
21.828167
21
9.921933
0
LINE
8
DEFAULT_255_2_778
10
21.828167
20
9.921933
11
21.828167
21
20.505233
0
LINE
8
DEFAULT_255_2_778
10
21.828167
20
20.505233
11
11.244767
21
20.505233
0
LINE
8
DEFAULT_255_2_778
10
11.244767
20
20.505233
11
0.661467
21
20.505233
0
LINE
8
DEFAULT_255_2_778
10
0.661467
20
20.505233
11
0.661467
21
9.921933
0
LINE
8
DEFAULT_255_2_778
10
0.661467
20
9.921933
11
0.661467
21
9.921933
0
LINE
8
DEFAULT_255_2_778
10
13.505967
20
3.195433
11
14.291967
21
3.648933
0
LINE
8
DEFAULT_255_2_778
10
14.291967
20
3.648933
11
14.900067
21
4.001633
0
LINE
8
DEFAULT_255_2_778
10
14.900067
20
4.001633
11
15.027767
21
3.813433
0
LINE
8
DEFAULT_255_2_778
10
17.718867
20
10.765133
11
17.719167
21
10.765133
0
LINE
8
DEFAULT_255_2_778
10
12.749967
20
9.881433
11
12.756667
21
9.014633
0
LINE
8
DEFAULT_255_2_778
10
12.756667
20
9.014633
11
11.379167
21
9.014633
0
LINE
8
DEFAULT_255_2_778
10
11.379167
20
9.014633
11
10.001767
21
9.014633
0
LINE
8
DEFAULT_255_2_778
10
10.001767
20
9.014633
11
10.001767
21
5.100433
0
LINE
8
DEFAULT_255_2_778
10
10.001767
20
5.100433
11
10.001767
21
1.186133
0
LINE
8
DEFAULT_255_2_778
10
10.001767
20
1.186133
11
9.027567
21
1.186133
0
LINE
8
DEFAULT_255_2_778
10
9.027567
20
1.186133
11
8.053167
21
1.186133
0
LINE
8
DEFAULT_255_2_778
10
8.053167
20
1.186133
11
8.053167
21
5.100633
0
LINE
8
DEFAULT_255_2_778
10
8.053167
20
5.100633
11
8.053167
21
9.014633
0
LINE
8
DEFAULT_255_2_778
10
8.053167
20
9.014633
11
6.675467
21
9.014633
0
LINE
8
DEFAULT_255_2_778
10
6.675467
20
9.014633
11
5.298067
21
9.014633
0
LINE
8
DEFAULT_255_2_778
10
5.298067
20
9.014633
11
5.298067
21
9.864733
0
LINE
8
DEFAULT_255_2_778
10
9.040867
20
10.755333
11
12.739967
21
10.745333
0
LINE
8
DEFAULT_255_2_778
10
12.739967
20
10.745333
11
12.749967
21
9.881933
0
LINE
8
DEFAULT_255_2_778
10
12.749967
20
9.881933
11
12.749967
21
9.881433
0
ENDSEC
0
EOF