0
SECTION
2
HEADER
9
$MEASUREMENT
70
1
0
ENDSEC
0
SECTION
2
TABLES
0
TABLE
2
LTYPE
0
LTYPE
72
65
70
64
2
CONTINUOUS
3
______
73
0
40
0
0
ENDTAB
0
TABLE
2
LAYER
0
LAYER
2
DEFAULT_255_2_778
70
0
62
255
6
CONTINUOUS
0
ENDTAB
0
ENDSEC
0
SECTION
2
ENTITIES
0
ARC
8
DEFAULT_255_2_778
10
8.2964032
20
3.4347021
40
1.1286333
50
89.3211474
51
107.9862879
0
ARC
8
DEFAULT_255_2_778
10
8.2227157
20
3.6815864
40
0.871082
50
108.3907321
51
133.565974
0
ARC
8
DEFAULT_255_2_778
10
8.2064499
20
3.6983155
40
0.8477504
50
133.5486473
51
178.299959
0
ARC
8
DEFAULT_255_2_778
10
8.5171054
20
3.658915
40
1.1598304
50
176.8095384
51
180.0226643
0
ARC
8
DEFAULT_255_2_778
10
8.4341959
20
3.647193
40
1.0769796
50
179.4007853
51
200.1409295
0
ARC
8
DEFAULT_255_2_778
10
8.3274613
20
3.6221455
40
0.9682378
50
200.9242064
51
223.5815046
0
ARC
8
DEFAULT_255_2_778
10
8.4248531
20
3.7246702
40
1.1094899
50
223.9495978
51
231.750776
0
ARC
8
DEFAULT_255_2_778
10
9.4838013
20
5.0425073
40
2.8000422
50
231.4281241
51
235.4678872
0
ARC
8
DEFAULT_255_2_778
10
11.1228633
20
7.405466
40
5.6758101
50
235.3589889
51
237.772468
0
ARC
8
DEFAULT_255_2_778
10
12.6079854
20
9.731616
40
8.4355913
50
237.6649896
51
238.2788728
0
ARC
8
DEFAULT_255_2_778
10
4.7572532
20
-3.0627629
40
6.5755121
50
56.3402327
51
58.7069567
0
ARC
8
DEFAULT_255_2_778
10
6.3298775
20
-0.7110704
40
3.746457
50
52.6233581
51
56.4245644
0
ARC
8
DEFAULT_255_2_778
10
7.4917003
20
0.8013604
40
1.839306
50
46.5231919
51
52.783244
0
ARC
8
DEFAULT_255_2_778
10
8.1449005
20
1.4926354
40
0.8882402
50
39.4607663
51
46.4172313
0
ARC
8
DEFAULT_255_2_778
10
8.3032053
20
1.6109097
40
0.6909127
50
14.4706954
51
40.231662
0
ARC
8
DEFAULT_255_2_778
10
8.4240376
20
1.6515288
40
0.5638375
50
359.9722974
51
13.5422419
0
ARC
8
DEFAULT_255_2_778
10
8.3668372
20
1.6356487
40
0.6212341
50
331.0544924
51
1.4396115
0
ARC
8
DEFAULT_255_2_778
10
8.4365866
20
1.610412
40
0.5481079
50
311.2077405
51
329.8341832
0
ARC
8
DEFAULT_255_2_778
10
8.3538357
20
1.7144803
40
0.6809459
50
277.2317737
51
310.6773385
0
ARC
8
DEFAULT_255_2_778
10
8.2892164
20
2.0607064
40
1.0327564
50
269.8035385
51
278.3703281
0
ARC
8
DEFAULT_255_2_778
10
8.2788684
20
1.8595561
40
0.8316277
50
225.7700742
51
270.468967
0
ARC
8
DEFAULT_255_2_778
10
8.2450498
20
1.8444187
40
0.7973086
50
183.6476937
51
226.752732
0
ARC
8
DEFAULT_255_2_778
10
8.584609
20
1.8960364
40
1.1398564
50
180.360921
51
185.151313
0
ARC
8
DEFAULT_255_2_778
10
7.7000917
20
0.8657801
40
0.2669584
50
136.9473132
51
163.0168334
0
ARC
8
DEFAULT_255_2_778
10
7.5785964
20
0.975981
40
0.1029761
50
90.2343832
51
135.6037115
0
ARC
8
DEFAULT_255_2_778
10
7.5581209
20
0.8056964
40
0.2739947
50
72.2643964
51
85.8026394
0
ARC
8
DEFAULT_255_2_778
10
7.1141396
20
-0.7660184
40
1.9070768
50
70.452831
51
73.9441924
0
ARC
8
DEFAULT_255_2_778
10
6.3441102
20
-3.0180199
40
4.2870162
50
70.546362
51
70.8247956
0
ARC
8
DEFAULT_255_2_778
10
8.7369271
20
3.6993123
40
2.8438091
50
250.1626102
51
255.9710518
0
ARC
8
DEFAULT_255_2_778
10
8.4453161
20
2.516425
40
1.6255178
50
255.8359477
51
264.3506887
0
ARC
8
DEFAULT_255_2_778
10
8.3811075
20
1.9282284
40
1.0338747
50
264.6829239
51
269.8707467
0
ARC
8
DEFAULT_255_2_778
10
8.3947859
20
1.8486586
40
0.9544367
50
269.0388146
51
315.9503282
0
ARC
8
DEFAULT_255_2_778
10
8.412469
20
1.8752165
40
0.9607052
50
314.0783442
51
359.9910664
0
ARC
8
DEFAULT_255_2_778
10
8.4101091
20
1.8750476
40
0.963065
50
0.0011333
51
0.8215427
0
ARC
8
DEFAULT_255_2_778
10
8.4678995
20
1.8984047
40
0.905226
50
359.3956221
51
37.9950796
0
ARC
8
DEFAULT_255_2_778
10
8.2378929
20
1.7121316
40
1.2011656
50
38.243329
51
47.7506036
0
ARC
8
DEFAULT_255_2_778
10
7.4666316
20
0.8763356
40
2.3384245
50
47.5312612
51
53.3787947
0
ARC
8
DEFAULT_255_2_778
10
6.3986644
20
-0.5504281
40
4.1206107
50
53.2946553
51
57.3697009
0
ARC
8
DEFAULT_255_2_778
10
5.2591127
20
-2.3065937
40
6.2140739
50
57.2522311
51
59.2398123
0
ARC
8
DEFAULT_255_2_778
10
11.4999588
20
8.1520902
40
5.9651063
50
236.6392208
51
239.107215
0
ARC
8
DEFAULT_255_2_778
10
10.0499578
20
5.9605301
40
3.337298
50
232.6413428
51
236.7408127
0
ARC
8
DEFAULT_255_2_778
10
8.9801598
20
4.5676956
40
1.581052
50
225.9614075
51
232.8282056
0
ARC
8
DEFAULT_255_2_778
10
8.4031851
20
3.9678617
40
0.748772
50
218.5473301
51
225.7931113
0
ARC
8
DEFAULT_255_2_778
10
8.3108316
20
3.9053693
40
0.6376592
50
180.1719039
51
219.3269443
0
ARC
8
DEFAULT_255_2_778
10
8.1449342
20
3.9195895
40
0.4720347
50
129.1873404
51
181.9586562
0
ARC
8
DEFAULT_255_2_778
10
8.2383499
20
3.7976467
40
0.6255935
50
96.534213
51
128.7618738
0
ARC
8
DEFAULT_255_2_778
10
8.2985554
20
3.4520575
40
0.9760041
50
89.810986
51
97.7370144
0
ARC
8
DEFAULT_255_2_778
10
8.3164509
20
3.6036564
40
0.8245304
50
65.1721957
51
91.0198528
0
ARC
8
DEFAULT_255_2_778
10
8.3563531
20
3.7144677
40
0.7072814
50
47.7314428
51
64.3365929
0
ARC
8
DEFAULT_255_2_778
10
8.3286549
20
3.6942223
40
0.7409249
50
12.0758789
51
47.1994405
0
ARC
8
DEFAULT_255_2_778
10
7.9740791
20
3.5943233
40
1.1088032
50
5.8665571
51
13.2907498
0
ARC
8
DEFAULT_255_2_778
10
8.7449203
20
4.6121033
40
0.3501654
50
333.5265717
51
345.859239
0
ARC
8
DEFAULT_255_2_778
10
9.0005387
20
4.4876795
40
0.0659352
50
320.8556069
51
331.2898259
0
ARC
8
DEFAULT_255_2_778
10
9.0034475
20
4.4988828
40
0.0715301
50
263.1976667
51
312.3942888
0
ARC
8
DEFAULT_255_2_778
10
9.0131459
20
4.7941432
40
0.3667374
50
254.2086428
51
267.1600046
0
ARC
8
DEFAULT_255_2_778
10
9.288098
20
5.8983232
40
1.5044975
50
251.7071417
51
255.576373
0
ARC
8
DEFAULT_255_2_778
10
8.2247906
20
2.7619137
40
1.8073319
50
70.9102901
51
82.0073856
0
ARC
8
DEFAULT_255_2_778
10
8.3064201
20
3.2914861
40
1.2715738
50
82.3318979
51
89.8623397
0
ARC
8
DEFAULT_255_2_778
10
11.6989995
20
2.6831403
40
1.8801881
50
89.4979214
51
112.4519468
0
ARC
8
DEFAULT_255_2_778
10
11.6803493
20
2.7537282
40
1.8078542
50
112.7600536
51
119.9504996
0
ARC
8
DEFAULT_255_2_778
10
11.6656873
20
2.7637483
40
1.7918687
50
119.7042416
51
150.4577572
0
ARC
8
DEFAULT_255_2_778
10
11.6593304
20
2.7377115
40
1.7993608
50
149.6366396
51
180.002272
0
ARC
8
DEFAULT_255_2_778
10
11.6552474
20
2.7376404
40
1.7952778
50
180.0000064
51
180.1431114
0
ARC
8
DEFAULT_255_2_778
10
11.606631
20
2.7183396
40
1.7467187
50
179.513982
51
220.3886801
0
ARC
8
DEFAULT_255_2_778
10
11.882369
20
2.9172779
40
2.0858216
50
219.6430034
51
220.214825
0
ARC
8
DEFAULT_255_2_778
10
11.8299581
20
2.8555184
40
2.0059679
50
219.8343105
51
235.9637113
0
ARC
8
DEFAULT_255_2_778
10
11.6596168
20
2.617491
40
1.7133938
50
236.2289193
51
258.5905613
0
ARC
8
DEFAULT_255_2_778
10
11.0183297
20
0.3914659
40
0.6245514
50
48.9503222
51
61.0464605
0
ARC
8
DEFAULT_255_2_778
10
10.2852679
20
-0.4784283
40
1.7620816
50
43.7519863
51
49.549907
0
ARC
8
DEFAULT_255_2_778
10
8.7833772
20
-1.9321271
40
3.8522625
50
40.5091796
51
43.9222872
0
ARC
8
DEFAULT_255_2_778
10
8.1740644
20
-2.4727344
40
4.6667113
50
40.6714331
51
40.6962099
0
ARC
8
DEFAULT_255_2_778
10
15.8169314
20
4.0734768
40
5.3964154
50
220.5018031
51
223.6134722
0
ARC
8
DEFAULT_255_2_778
10
14.0293233
20
2.364202
40
2.9231329
50
223.5260989
51
228.2782374
0
ARC
8
DEFAULT_255_2_778
10
13.109465
20
1.3332042
40
1.5414326
50
228.2940504
51
234.0065026
0
ARC
8
DEFAULT_255_2_778
10
13.0618404
20
1.2761066
40
1.4672557
50
234.2008301
51
253.0946627
0
ARC
8
DEFAULT_255_2_778
10
13.1144252
20
1.4890843
40
1.6863611
50
253.4894569
51
270.0382833
0
ARC
8
DEFAULT_255_2_778
10
13.1322311
20
1.8664288
40
2.0637727
50
269.5369369
51
270.001224
0
ARC
8
DEFAULT_255_2_778
10
13.1472902
20
1.299589
40
1.4970081
50
269.4253136
51
285.9892964
0
ARC
8
DEFAULT_255_2_778
10
13.2206965
20
1.0071511
40
1.1957051
50
286.4679017
51
294.3435892
0
ARC
8
DEFAULT_255_2_778
10
13.3667742
20
0.8852977
40
0.9254737
50
270.0023087
51
289.4718615
0
ARC
8
DEFAULT_255_2_778
10
13.3667884
20
0.883669
40
0.9238451
50
269.5216286
51
270.0014298
0
ARC
8
DEFAULT_255_2_778
10
13.3690578
20
0.7411567
40
0.7813643
50
241.421541
51
269.2679805
0
ARC
8
DEFAULT_255_2_778
10
13.5006969
20
1.0202302
40
1.0895545
50
236.6728484
51
242.3627461
0
ARC
8
DEFAULT_255_2_778
10
13.6551874
20
1.2340411
40
1.3531333
50
227.8725769
51
236.181142
0
ARC
8
DEFAULT_255_2_778
10
14.5436019
20
2.2309246
40
2.6884269
50
223.0122787
51
228.0813109
0
ARC
8
DEFAULT_255_2_778
10
15.9903267
20
3.590775
40
4.6739178
50
219.7131138
51
223.10351
0
ARC
8
DEFAULT_255_2_778
10
17.3209858
20
4.7136479
40
6.4149989
50
218.917325
51
219.8342005
0
ARC
8
DEFAULT_255_2_778
10
11.7841394
20
2.7131204
40
1.8044423
50
280.2999203
51
320.8448993
0
ARC
8
DEFAULT_255_2_778
10
11.834816
20
2.7186583
40
1.7690146
50
319.6693517
51
0.4533769
0
ARC
8
DEFAULT_255_2_778
10
11.7475825
20
2.7467288
40
1.856246
50
359.5656228
51
17.9677293
0
ARC
8
DEFAULT_255_2_778
10
11.8634205
20
2.764833
40
1.7405712
50
18.5771347
51
45.328815
0
ARC
8
DEFAULT_255_2_778
10
11.6134846
20
2.5429718
40
2.074177
50
44.7275543
51
45.8906056
0
ARC
8
DEFAULT_255_2_778
10
11.7715846
20
2.7286911
40
1.8308536
50
45.3977547
51
86.0231067
0
ARC
8
DEFAULT_255_2_778
10
11.717024
20
2.3078666
40
2.2545901
50
85.3815855
51
90.0393593
0
ARC
8
DEFAULT_255_2_778
10
13.859249
20
3.689266
40
0.7626889
50
77.0578648
51
90.9220913
0
ARC
8
DEFAULT_255_2_778
10
13.971303
20
4.1427638
40
0.2957137
50
44.535338
51
78.5381132
0
ARC
8
DEFAULT_255_2_778
10
14.0230027
20
4.2074064
40
0.2137497
50
11.2088094
51
41.9024434
0
ARC
8
DEFAULT_255_2_778
10
13.566821
20
4.1211861
40
0.6780022
50
2.7644244
51
10.8623919
0
ARC
8
DEFAULT_255_2_778
10
11.4623223
20
3.9889626
40
2.7865967
50
0.3732648
51
3.3930041
0
ARC
8
DEFAULT_255_2_778
10
9.0474229
20
3.9500051
40
5.2017505
50
0.3519346
51
0.6290761
0
ARC
8
DEFAULT_255_2_778
10
12.9153039
20
1.5179329
40
1.3319726
50
352.3279222
51
359.9192729
0
ARC
8
DEFAULT_255_2_778
10
13.7695186
20
1.3961224
40
0.4691901
50
336.9024867
51
353.1436409
0
ARC
8
DEFAULT_255_2_778
10
14.0452832
20
1.2806428
40
0.1702402
50
316.4531242
51
336.2431286
0
ARC
8
DEFAULT_255_2_778
10
13.962129
20
1.3866842
40
0.3041985
50
283.3204093
51
312.7643675
0
ARC
8
DEFAULT_255_2_778
10
13.8405378
20
1.8008137
40
0.7355575
50
275.3464327
51
285.1049544
0
ARC
8
DEFAULT_255_2_778
10
15.6091018
20
1.6053936
40
0.5375979
50
324.8755209
51
350.4666981
0
ARC
8
DEFAULT_255_2_778
10
15.7483028
20
1.5168957
40
0.3729069
50
299.6314583
51
323.6912463
0
ARC
8
DEFAULT_255_2_778
10
15.6648114
20
1.6927574
40
0.5672321
50
282.0084963
51
298.1791205
0
ARC
8
DEFAULT_255_2_778
10
15.4843134
20
2.4661006
40
1.3612958
50
274.6279969
51
282.6671605
0
ARC
8
DEFAULT_255_2_778
10
15.3651132
20
3.8329236
40
2.7332935
50
269.7497526
51
274.8067642
0
ARC
8
DEFAULT_255_2_778
10
15.1252832
20
1.8028737
40
0.703325
50
254.5757205
51
271.0014101
0
ARC
8
DEFAULT_255_2_778
10
15.010169
20
1.4270754
40
0.3106411
50
190.2392501
51
256.6085312
0
ARC
8
DEFAULT_255_2_778
10
15.2599589
20
1.4825923
40
0.5664138
50
179.9622298
51
191.2741623
0
ARC
8
DEFAULT_255_2_778
10
15.2719392
20
1.4829849
40
0.5783939
50
179.418376
51
180.0018996
0
ARC
8
DEFAULT_255_2_778
10
16.1514349
20
3.9939934
40
1.4486073
50
173.2821574
51
180.4642392
0
ARC
8
DEFAULT_255_2_778
10
15.2458426
20
4.10732
40
0.5360163
50
158.9764634
51
173.9889808
0
ARC
8
DEFAULT_255_2_778
10
14.9411302
20
4.221365
40
0.2106932
50
142.4556872
51
158.1979735
0
ARC
8
DEFAULT_255_2_778
10
14.9703466
20
4.1784306
40
0.2605282
50
102.1694023
51
138.8822572
0
ARC
8
DEFAULT_255_2_778
10
15.0742146
20
3.8167347
40
0.6364944
50
93.3270721
51
104.4463158
0
ARC
8
DEFAULT_255_2_778
10
11.7677887
20
3.2267842
40
1.201376
50
65.7394459
51
90.7541948
0
ARC
8
DEFAULT_255_2_778
10
11.7550688
20
3.2478276
40
1.1875901
50
39.5603139
51
64.7627699
0
ARC
8
DEFAULT_255_2_778
10
11.5415494
20
3.0474545
40
1.4799351
50
38.4367322
51
40.2761787
0
ARC
8
DEFAULT_255_2_778
10
11.4868199
20
3.0187026
40
1.5407209
50
17.45876
51
38.0090196
0
ARC
8
DEFAULT_255_2_778
10
10.8616117
20
2.8136252
40
2.1986696
50
6.1599076
51
17.668684
0
ARC
8
DEFAULT_255_2_778
10
10.0016695
20
2.710616
40
3.0647166
50
359.8474499
51
6.3494688
0
ARC
8
DEFAULT_255_2_778
10
10.4580648
20
2.6893511
40
2.6083433
50
350.4594317
51
0.287873
0
ARC
8
DEFAULT_255_2_778
10
11.2205039
20
2.5570166
40
1.8345207
50
335.4084703
51
350.5885118
0
ARC
8
DEFAULT_255_2_778
10
11.5359173
20
2.4200026
40
1.4907131
50
321.162511
51
335.1520422
0
ARC
8
DEFAULT_255_2_778
10
11.7680586
20
2.2094675
40
1.1780063
50
275.1395617
51
322.058103
0
ARC
8
DEFAULT_255_2_778
10
11.7174032
20
2.548716
40
1.520561
50
269.9273514
51
275.8955014
0
ARC
8
DEFAULT_255_2_778
10
11.6999208
20
2.2205195
40
1.1924647
50
245.9946972
51
270.7473809
0
ARC
8
DEFAULT_255_2_778
10
11.7120261
20
2.1978402
40
1.1768465
50
219.4386293
51
245.0070706
0
ARC
8
DEFAULT_255_2_778
10
11.9374817
20
2.4078981
40
1.4845283
50
217.7055022
51
220.1722657
0
ARC
8
DEFAULT_255_2_778
10
12.0744104
20
2.5012593
40
1.649991
50
194.7377086
51
217.3623509
0
ARC
8
DEFAULT_255_2_778
10
12.6917287
20
2.6726865
40
2.2906268
50
183.2419218
51
194.9564477
0
ARC
8
DEFAULT_255_2_778
10
13.3393793
20
2.7244171
40
2.9402048
50
179.9583165
51
183.5346551
0
ARC
8
DEFAULT_255_2_778
10
13.1388984
20
2.7394923
40
2.7397537
50
170.9573976
51
180.2705307
0
ARC
8
DEFAULT_255_2_778
10
12.3295807
20
2.8726773
40
1.9195667
50
156.8490572
51
171.0866472
0
ARC
8
DEFAULT_255_2_778
10
11.9524032
20
3.0283971
40
1.5115491
50
141.6694332
51
156.6553955
0
ARC
8
DEFAULT_255_2_778
10
11.6958611
20
3.2541941
40
1.1704057
50
95.7403843
51
142.551549
0
ARC
8
DEFAULT_255_2_778
10
11.749599
20
2.9084126
40
1.5199455
50
89.9104288
51
96.4522164
0
ARC
8
DEFAULT_255_2_778
10
16.9901009
20
3.7393379
40
0.1587341
50
87.0120146
51
89.9998645
0
ARC
8
DEFAULT_255_2_778
10
16.9901579
20
3.7393601
40
0.158712
50
90.0204259
51
140.057471
0
ARC
8
DEFAULT_255_2_778
10
16.9759152
20
3.7469949
40
0.1429284
50
138.7382772
51
180.9451206
0
ARC
8
DEFAULT_255_2_778
10
17.0432426
20
3.7459686
40
0.2102405
50
180.3628007
51
191.9724042
0
ARC
8
DEFAULT_255_2_778
10
17.0755081
20
3.754859
40
0.2436568
50
192.4435956
51
232.498789
0
ARC
8
DEFAULT_255_2_778
10
17.086739
20
3.7423784
40
0.2411582
50
228.5736877
51
269.010678
0
ARC
8
DEFAULT_255_2_778
10
17.0888139
20
3.6464142
40
0.145292
50
267.5390251
51
270.0006407
0
ARC
8
DEFAULT_255_2_778
10
17.0887641
20
3.6467563
40
0.1456341
50
270.0202302
51
324.1950013
0
ARC
8
DEFAULT_255_2_778
10
17.0700602
20
3.661338
40
0.1693362
50
323.8960216
51
0.0095521
0
ARC
8
DEFAULT_255_2_778
10
17.0697364
20
3.6613671
40
0.16966
50
359.9996836
51
3.6819685
0
ARC
8
DEFAULT_255_2_778
10
17.0693046
20
3.6613254
40
0.1700934
50
3.6866622
51
13.9588421
0
ARC
8
DEFAULT_255_2_778
10
16.9996253
20
3.6530841
40
0.2398651
50
11.8538469
51
51.6736524
0
ARC
8
DEFAULT_255_2_778
10
16.9973458
20
3.668065
40
0.2297935
50
48.9103283
51
89.7433456
0
ARC
8
DEFAULT_255_2_778
10
17.4655154
20
3.7754876
40
1.0683674
50
330.8654934
51
346.1397975
0
ARC
8
DEFAULT_255_2_778
10
17.8454493
20
3.5547548
40
0.6290855
50
273.9400281
51
331.5786762
0
ARC
8
DEFAULT_255_2_778
10
18.5880779
20
1.2200959
40
0.3178259
50
189.3507542
51
229.6802032
0
ARC
8
DEFAULT_255_2_778
10
18.5817281
20
1.2454413
40
0.3337184
50
233.3295527
51
268.7075198
0
ARC
8
DEFAULT_255_2_778
10
18.6084505
20
1.4690469
40
0.5582908
50
266.4828328
51
270.0435821
0
ARC
8
DEFAULT_255_2_778
10
18.5980137
20
1.6885846
40
0.7779042
50
270.8000204
51
296.4644582
0
ARC
8
DEFAULT_255_2_778
10
18.3703698
20
2.1678215
40
1.3084067
50
296.0362214
51
309.256869
0
ARC
8
DEFAULT_255_2_778
10
17.8314677
20
2.8403831
40
2.1702146
50
309.0373501
51
317.2852133
0
ARC
8
DEFAULT_255_2_778
10
17.3500234
20
3.30562
40
2.8395848
50
316.9776955
51
317.9616863
0
ARC
8
DEFAULT_255_2_778
10
18.1038714
20
2.7135487
40
1.7666439
50
307.3605196
51
315.7524801
0
ARC
8
DEFAULT_255_2_778
10
18.6225441
20
2.0254047
40
0.9049547
50
293.3499551
51
307.6977919
0
ARC
8
DEFAULT_255_2_778
10
18.7928991
20
1.6276283
40
0.4722378
50
270.9556352
51
293.502107
0
ARC
8
DEFAULT_255_2_778
10
18.7956526
20
1.3376773
40
0.1822931
50
185.2442741
51
271.6102833
0
ARC
8
DEFAULT_255_2_778
10
19.0081928
20
1.4108637
40
0.4041832
50
191.6774577
51
192.8439292
0
ARC
8
DEFAULT_255_2_778
10
19.0441557
20
1.4195109
40
0.4411536
50
179.9773301
51
191.8319152
0
ARC
8
DEFAULT_255_2_778
10
19.048126
20
1.419695
40
0.4451238
50
178.9623186
51
180.001233
0
ARC
8
DEFAULT_255_2_778
10
20.6676406
20
2.211656
40
0.8435152
50
89.6580222
51
140.9730859
0
ARC
8
DEFAULT_255_2_778
10
21.0161889
20
1.8751478
40
1.3268424
50
139.1616989
51
146.8836456
0
ARC
8
DEFAULT_255_2_778
10
20.9501849
20
1.8981846
40
1.2590855
50
146.1206753
51
180.1145197
0
ARC
8
DEFAULT_255_2_778
10
21.1437099
20
1.8991282
40
1.452612
50
180.1364823
51
189.903152
0
ARC
8
DEFAULT_255_2_778
10
21.3268337
20
1.9270582
40
1.6378157
50
189.7639038
51
191.8419995
0
ARC
8
DEFAULT_255_2_778
10
20.7331496
20
1.7898954
40
1.0286942
50
191.1506918
51
209.6260303
0
ARC
8
DEFAULT_255_2_778
10
20.4843485
20
1.6556222
40
0.7460688
50
210.1076932
51
229.506019
0
ARC
8
DEFAULT_255_2_778
10
20.4836971
20
1.6691326
40
0.7559768
50
230.2085067
51
266.6375531
0
ARC
8
DEFAULT_255_2_778
10
20.5253977
20
1.96977
40
1.0588144
50
265.3389498
51
270.0528933
0
ARC
8
DEFAULT_255_2_778
10
20.5219235
20
2.3236956
40
1.4127465
50
270.1805426
51
276.2172536
0
ARC
8
DEFAULT_255_2_778
10
20.5106661
20
2.4547482
40
1.5442504
50
276.1058853
51
278.392044
0
ARC
8
DEFAULT_255_2_778
10
20.5814875
20
2.066589
40
1.1499894
50
277.7237599
51
290.9247166
0
ARC
8
DEFAULT_255_2_778
10
20.8416306
20
1.3922544
40
0.4272245
50
290.6357982
51
309.1526425
0
ARC
8
DEFAULT_255_2_778
10
20.486517
20
1.7566768
40
0.9351336
50
311.9284465
51
326.5071061
0
ARC
8
DEFAULT_255_2_778
10
19.7874805
20
2.2311021
40
1.7799295
50
326.1885148
51
334.8661319
0
ARC
8
DEFAULT_255_2_778
10
19.0848927
20
2.5798566
40
2.5641813
50
334.4791116
51
336.2088615
0
ARC
8
DEFAULT_255_2_778
10
20.6103968
20
2.0461766
40
0.8520874
50
272.0902288
51
330.5901568
0
ARC
8
DEFAULT_255_2_778
10
20.6280021
20
1.8450679
40
0.6505513
50
246.7631602
51
271.186694
0
ARC
8
DEFAULT_255_2_778
10
20.5973774
20
1.7314388
40
0.5343179
50
203.1134337
51
244.9731835
0
ARC
8
DEFAULT_255_2_778
10
20.9834407
20
1.9205862
40
0.9639026
50
191.2852708
51
204.4458872
0
ARC
8
DEFAULT_255_2_778
10
21.3157013
20
1.9979812
40
1.30493
50
185.2641908
51
191.7628632
0
ARC
8
DEFAULT_255_2_778
10
19.5498352
20
4.9023495
40
3.059854
50
278.768277
51
285.2388796
0
ARC
8
DEFAULT_255_2_778
10
19.8493807
20
3.819844
40
1.9366827
50
285.1062524
51
294.7878175
0
ARC
8
DEFAULT_255_2_778
10
20.1516517
20
3.1686914
40
1.218794
50
294.7210552
51
307.9379222
0
ARC
8
DEFAULT_255_2_778
10
19.9777033
20
3.3725592
40
1.4865719
50
308.3946415
51
308.4318459
0
ARC
8
DEFAULT_255_2_778
10
19.6935747
20
3.8181678
40
2.0129836
50
306.8829445
51
316.7410711
0
ARC
8
DEFAULT_255_2_778
10
20.850324
20
2.7348307
40
0.4281739
50
316.2378346
51
343.6265849
0
ARC
8
DEFAULT_255_2_778
10
21.0410689
20
2.6674472
40
0.2264311
50
346.3808217
51
359.834044
0
ARC
8
DEFAULT_255_2_778
10
21.0578117
20
2.6668344
40
0.2096874
50
359.9882453
51
11.9232864
0
ARC
8
DEFAULT_255_2_778
10
20.8629566
20
2.6302742
40
0.4079166
50
11.2931647
51
54.1125711
0
ARC
8
DEFAULT_255_2_778
10
20.9203889
20
2.6917934
40
0.324578
50
55.9606884
51
72.4699647
0
ARC
8
DEFAULT_255_2_778
10
20.7132839
20
2.0734792
40
0.9766233
50
71.8101148
51
81.2912765
0
ARC
8
DEFAULT_255_2_778
10
20.6446407
20
1.7123936
40
1.3440038
50
80.7294221
51
86.9231983
0
ARC
8
DEFAULT_255_2_778
10
20.6706823
20
2.1679017
40
0.887756
50
87.0235539
51
89.8907421
0
ARC
8
DEFAULT_255_2_778
10
16.8127738
20
2.590425
40
0.2058808
50
49.3270031
51
93.7871804
0
ARC
8
DEFAULT_255_2_778
10
16.8092357
20
2.6103331
40
0.1937212
50
9.5449264
51
44.690776
0
ARC
8
DEFAULT_255_2_778
10
16.3039301
20
2.5125842
40
0.7083525
50
1.6092627
51
10.5645854
0
ARC
8
DEFAULT_255_2_778
10
15.6463449
20
2.4754513
40
1.3668483
50
1.0230607
51
2.3911055
0
ARC
8
DEFAULT_255_2_778
10
15.705966
20
1.3978576
40
1.2996153
50
353.4075612
51
359.8235921
0
ARC
8
DEFAULT_255_2_778
10
16.6674869
20
1.2793972
40
0.3309325
50
337.7602402
51
354.6695902
0
ARC
8
DEFAULT_255_2_778
10
16.9018627
20
1.1843487
40
0.0780215
50
310.5401056
51
337.2243397
0
ARC
8
DEFAULT_255_2_778
10
16.8568447
20
1.2739083
40
0.1769782
50
277.2230387
51
302.746088
0
ARC
8
DEFAULT_255_2_778
10
16.732559
20
1.9553604
40
0.8694635
50
271.4528954
51
279.7028205
0
ARC
8
DEFAULT_255_2_778
10
16.6829554
20
3.0275231
40
1.9426685
50
269.9239011
51
272.1136446
0
ARC
8
DEFAULT_255_2_778
10
17.7365077
20
2.8902091
40
1.8053894
50
265.4194135
51
270.3639356
0
ARC
8
DEFAULT_255_2_778
10
17.6282273
20
1.6254549
40
0.5360722
50
254.7101845
51
266.1600951
0
ARC
8
DEFAULT_255_2_778
10
17.5310055
20
1.2592133
40
0.1571814
50
242.7659939
51
253.6902185
0
ARC
8
DEFAULT_255_2_778
10
17.5451471
20
1.2677535
40
0.1714656
50
186.7646876
51
239.8690622
0
ARC
8
DEFAULT_255_2_778
10
18.0209584
20
1.3691935
40
0.6574338
50
182.4747451
51
190.6622056
0
ARC
8
DEFAULT_255_2_778
10
19.9850583
20
1.4812914
40
2.624683
50
179.9964018
51
183.0682012
0
ARC
8
DEFAULT_255_2_778
10
20.4959439
20
2.5505022
40
0.287198
50
55.4577287
51
88.9962054
0
ARC
8
DEFAULT_255_2_778
10
20.4100729
20
2.4034964
40
0.4571523
50
51.8007125
51
57.0398343
0
ARC
8
DEFAULT_255_2_778
10
20.5194191
20
2.5204369
40
0.2979446
50
19.1943707
51
54.4199268
0
ARC
8
DEFAULT_255_2_778
10
20.5892949
20
2.5533093
40
0.221293
50
11.7189014
51
17.104049
0
ARC
8
DEFAULT_255_2_778
10
20.4083445
20
2.5141794
40
0.4064223
50
2.1321768
51
11.9390254
0
ARC
8
DEFAULT_255_2_778
10
20.4529539
20
2.5168882
40
0.3617444
50
0.0040555
51
1.9662935
0
ARC
8
DEFAULT_255_2_778
10
20.4654461
20
2.5210171
40
0.3492764
50
308.963017
51
359.3268867
0
ARC
8
DEFAULT_255_2_778
10
20.1953006
20
2.8179194
40
0.7503695
50
295.2834577
51
310.7465748
0
ARC
8
DEFAULT_255_2_778
10
19.8779579
20
3.4675278
40
1.4733158
50
286.7085847
51
295.6528071
0
ARC
8
DEFAULT_255_2_778
10
19.5468927
20
4.5404828
40
2.596167
50
281.3660761
51
286.8985714
0
ARC
8
DEFAULT_255_2_778
10
19.3673728
20
5.3670229
40
3.4419013
50
280.9297447
51
281.5842659
0
ARC
8
DEFAULT_255_2_778
10
21.2770572
20
2.0864007
40
1.2609621
50
180.0390721
51
184.4959255
0
ARC
8
DEFAULT_255_2_778
10
21.0249183
20
2.0971227
40
1.0088894
50
151.8848941
51
180.6577584
0
ARC
8
DEFAULT_255_2_778
10
20.6940312
20
2.2863793
40
0.6279562
50
133.2341934
51
152.8882502
0
ARC
8
DEFAULT_255_2_778
10
20.5000804
20
2.4933267
40
0.34433
50
89.9010247
51
133.309155
0
LINE
8
DEFAULT_255_2_778
10
7.4447752
20
1.8888562
11
7.3405752
21
1.8888562
0
LINE
8
DEFAULT_255_2_778
10
7.3405752
20
1.8888562
11
7.3405752
21
0.9437562
0
LINE
8
DEFAULT_255_2_778
10
7.3405752
20
0.9437562
11
7.4447752
21
0.9437562
0
LINE
8
DEFAULT_255_2_778
10
9.0770752
20
3.7076562
11
9.1812752
21
3.7076562
0
LINE
8
DEFAULT_255_2_778
10
9.1812752
20
3.7076562
11
9.1812752
21
4.5265562
0
LINE
8
DEFAULT_255_2_778
10
9.1812752
20
4.5265562
11
9.0844752
21
4.5265562
0
LINE
8
DEFAULT_255_2_778
10
8.3094752
20
4.5630562
11
8.3094752
21
4.5630562
0
LINE
8
DEFAULT_255_2_778
10
8.3094752
20
4.5630562
11
8.3097752
21
4.5632562
0
LINE
8
DEFAULT_255_2_778
10
13.7135752
20
-0.0822438
11
13.6752752
21
0.0127562
0
LINE
8
DEFAULT_255_2_778
10
12.3297752
20
0.6837562
11
12.1067752
21
0.9377562
0
LINE
8
DEFAULT_255_2_778
10
11.7154752
20
4.5624562
11
11.7154752
21
4.5624562
0
LINE
8
DEFAULT_255_2_778
10
11.7154752
20
4.5624562
11
11.7154752
21
4.5632562
0
LINE
8
DEFAULT_255_2_778
10
13.8413752
20
4.5632562
11
13.8469752
21
4.4518562
0
LINE
8
DEFAULT_255_2_778
10
14.2490752
20
3.9819562
11
14.2472752
21
1.5160562
0
LINE
8
DEFAULT_255_2_778
10
13.9090752
20
1.0684562
11
13.9035752
21
0.9570562
0
LINE
8
DEFAULT_255_2_778
10
13.9035752
20
0.9570562
11
16.1850752
21
0.9570562
0
LINE
8
DEFAULT_255_2_778
10
16.1850752
20
0.9570562
11
16.2435752
21
1.5163562
0
LINE
8
DEFAULT_255_2_778
10
16.2435752
20
1.5163562
11
16.1392752
21
1.5163562
0
LINE
8
DEFAULT_255_2_778
10
15.3531752
20
1.0996562
11
15.1375752
21
1.0996562
0
LINE
8
DEFAULT_255_2_778
10
14.6935752
20
1.4888562
11
14.7028752
21
3.9822562
0
LINE
8
DEFAULT_255_2_778
10
15.0372752
20
4.4521562
11
15.0317752
21
4.5635562
0
LINE
8
DEFAULT_255_2_778
10
15.0317752
20
4.5635562
11
13.8416752
21
4.5635562
0
LINE
8
DEFAULT_255_2_778
10
13.8416752
20
4.5635562
11
13.8416752
21
4.5635562
0
LINE
8
DEFAULT_255_2_778
10
13.8416752
20
4.5635562
11
13.8413752
21
4.5632562
0
LINE
8
DEFAULT_255_2_778
10
11.7519752
20
4.4283562
11
11.7519752
21
4.4283562
0
LINE
8
DEFAULT_255_2_778
10
11.7519752
20
4.4283562
11
11.7519752
21
4.4280562
0
LINE
8
DEFAULT_255_2_778
10
16.9983752
20
3.8978562
11
16.9983752
21
3.8978562
0
LINE
8
DEFAULT_255_2_778
10
16.9983752
20
3.8978562
11
16.9983752
21
3.8978562
0
LINE
8
DEFAULT_255_2_778
10
17.8886752
20
2.9271562
11
17.8923752
21
2.8228562
0
LINE
8
DEFAULT_255_2_778
10
17.8923752
20
2.8228562
11
18.2599752
21
2.8228562
0
LINE
8
DEFAULT_255_2_778
10
18.2599752
20
2.8228562
11
18.2524752
21
1.5906562
0
LINE
8
DEFAULT_255_2_778
10
18.2524752
20
1.5906562
11
18.2744752
21
1.1684562
0
LINE
8
DEFAULT_255_2_778
10
19.4589752
20
1.4041562
11
19.3693752
21
1.4808562
0
LINE
8
DEFAULT_255_2_778
10
18.6030752
20
1.4277562
11
18.6067752
21
2.8225562
0
LINE
8
DEFAULT_255_2_778
10
18.6067752
20
2.8225562
11
19.1679752
21
2.8225562
0
LINE
8
DEFAULT_255_2_778
10
19.1679752
20
2.8225562
11
19.1623752
21
2.9890562
0
LINE
8
DEFAULT_255_2_778
10
19.1623752
20
2.9890562
11
18.6086752
21
2.9890562
0
LINE
8
DEFAULT_255_2_778
10
18.6086752
20
2.9890562
11
18.6086752
21
3.5195562
0
LINE
8
DEFAULT_255_2_778
10
18.6086752
20
3.5195562
11
18.5025752
21
3.5195562
0
LINE
8
DEFAULT_255_2_778
10
18.5025752
20
3.5195562
11
18.5025752
21
3.5195562
0
LINE
8
DEFAULT_255_2_778
10
18.5025752
20
3.5195562
11
18.5027752
21
3.5195562
0
LINE
8
DEFAULT_255_2_778
10
21.4311752
20
1.5454562
11
21.3526752
21
1.6277562
0
LINE
8
DEFAULT_255_2_778
10
20.6723752
20
3.0556562
11
20.6723752
21
3.0556562
0
LINE
8
DEFAULT_255_2_778
10
20.6723752
20
3.0556562
11
20.6726752
21
3.0551562
0
LINE
8
DEFAULT_255_2_778
10
17.2415752
20
3.0424562
11
16.5652752
21
2.8871562
0
LINE
8
DEFAULT_255_2_778
10
16.5652752
20
2.8871562
11
16.5652752
21
2.7665562
0
LINE
8
DEFAULT_255_2_778
10
16.5652752
20
2.7665562
11
16.7991752
21
2.7958562
0
LINE
8
DEFAULT_255_2_778
10
17.0129752
20
2.4998562
11
17.0055752
21
1.3938562
0
LINE
8
DEFAULT_255_2_778
10
16.6803752
20
1.0848562
11
16.6766752
21
0.9805562
0
LINE
8
DEFAULT_255_2_778
10
16.6766752
20
0.9805562
11
17.7497752
21
0.9805562
0
LINE
8
DEFAULT_255_2_778
10
17.7497752
20
0.9805562
11
17.7479752
21
1.0848562
0
LINE
8
DEFAULT_255_2_778
10
17.3603752
20
1.4814562
11
17.3640752
21
3.0424562
0
LINE
8
DEFAULT_255_2_778
10
17.3640752
20
3.0424562
11
17.2415752
21
3.0424562
0
LINE
8
DEFAULT_255_2_778
10
17.2415752
20
3.0424562
11
17.2415752
21
3.0424562
0
LINE
8
DEFAULT_255_2_778
10
17.2415752
20
3.0424562
11
17.2415752
21
3.0424562
0
LINE
8
DEFAULT_255_2_778
10
20.5006752
20
2.8376562
11
20.5006752
21
2.8376562
0
LINE
8
DEFAULT_255_2_778
10
20.5006752
20
2.8376562
11
20.5009752
21
2.8376562
0
ARC
8
DEFAULT_255_2_778
10
0.9762691
20
8.0740486
40
0.7116636
50
90.1899724
51
179.8100236
0
ARC
8
DEFAULT_255_2_778
10
0.9762691
20
1.6593679
40
0.7116636
50
180.1899776
51
269.8100248
0
ARC
8
DEFAULT_255_2_778
10
12.4771046
20
1.1218474
40
7.6712719
50
180.7949459
51
181.3007354
0
ARC
8
DEFAULT_255_2_778
10
12.9365011
20
1.1283553
40
8.1307143
50
180.3904816
51
180.7958879
0
ARC
8
DEFAULT_255_2_778
10
13.3623656
20
1.1312124
40
8.5565883
50
179.9983794
51
180.3901782
0
ARC
8
DEFAULT_255_2_778
10
14.6332605
20
1.1256151
40
9.827485
50
178.1858265
51
179.9659558
0
ARC
8
DEFAULT_255_2_778
10
16.9315249
20
1.0529402
40
12.1268982
50
176.4272492
51
178.1863934
0
ARC
8
DEFAULT_255_2_778
10
19.2010944
20
0.9134884
40
14.400747
50
174.9489864
51
176.4361988
0
ARC
8
DEFAULT_255_2_778
10
21.3451207
20
0.7235886
40
16.5531668
50
173.3000958
51
174.947614
0
ARC
8
DEFAULT_255_2_778
10
23.2481149
20
0.5012885
40
18.4691007
50
171.6652743
51
173.3039382
0
ARC
8
DEFAULT_255_2_778
10
24.5695906
20
0.3087741
40
19.8045254
50
169.8874366
51
171.6683832
0
ARC
8
DEFAULT_255_2_778
10
25.0721678
20
0.2210805
40
20.3146924
50
167.5398468
51
169.8928309
0
ARC
8
DEFAULT_255_2_778
10
24.5472548
20
0.3380437
40
19.776907
50
165.8529016
51
167.542607
0
ARC
8
DEFAULT_255_2_778
10
21.9748416
20
1.0226687
40
17.1152168
50
160.0630212
51
165.9705117
0
ARC
8
DEFAULT_255_2_778
10
18.2272547
20
2.356293
40
13.137504
50
156.4923897
51
159.9575749
0
ARC
8
DEFAULT_255_2_778
10
15.9789532
20
3.3330222
40
10.6862069
50
153.0418686
51
156.4864146
0
ARC
8
DEFAULT_255_2_778
10
14.1829742
20
4.2470346
40
8.6710248
50
149.2838714
51
153.0452137
0
ARC
8
DEFAULT_255_2_778
10
13.2432032
20
4.7954214
40
7.5829926
50
148.2525721
51
149.2191326
0
LINE
8
DEFAULT_255_2_778
10
6.7948095
20
8.7857082
11
0.9739095
21
8.7857082
0
LINE
8
DEFAULT_255_2_778
10
0.2646095
20
8.0764082
11
0.2646095
21
1.6570082
0
LINE
8
DEFAULT_255_2_778
10
0.9739095
20
0.9477082
11
4.8078095
21
0.9477082
0
LINE
8
DEFAULT_255_2_778
10
6.7948095
20
8.7854082
11
6.7948095
21
8.7854082
0
LINE
8
DEFAULT_255_2_778
10
6.7948095
20
8.7854082
11
6.7948095
21
8.7857082
0
ARC
8
DEFAULT_255_2_778
10
0.9740779
20
8.0762106
40
0.5026153
50
90.0245411
51
179.9754566
0
ARC
8
DEFAULT_255_2_778
10
4.3294898
20
-7.9457671
40
10.7847711
50
108.8616571
51
110.9608019
0
ARC
8
DEFAULT_255_2_778
10
5.1195904
20
-10.2554149
40
13.2258222
50
106.7862478
51
108.8659934
0
ARC
8
DEFAULT_255_2_778
10
5.7111725
20
-12.20963
40
15.2676163
50
104.6665141
51
106.7937265
0
ARC
8
DEFAULT_255_2_778
10
5.9456889
20
-13.0898864
40
16.1785686
50
101.2280998
51
104.680682
0
ARC
8
DEFAULT_255_2_778
10
5.6138708
20
-11.3801852
40
14.4369832
50
98.0933777
51
101.2576195
0
ARC
8
DEFAULT_255_2_778
10
5.2277618
20
-8.6862312
40
11.7155024
50
95.571337
51
98.0787538
0
ARC
8
DEFAULT_255_2_778
10
5.000487
20
-6.3590851
40
9.3772845
50
93.082409
51
95.5696864
0
ARC
8
DEFAULT_255_2_778
10
4.8901271
20
-4.2786759
40
7.2939513
50
90.174892
51
93.0955119
0
ARC
8
DEFAULT_255_2_778
10
4.879337
20
-3.1945004
40
6.2097523
50
89.9990732
51
90.1058691
0
ARC
8
DEFAULT_255_2_778
10
4.8797593
20
-3.0851651
40
6.100417
50
89.3850123
51
90.0030235
0
ARC
8
DEFAULT_255_2_778
10
4.8813215
20
-2.905702
40
5.9209474
50
89.1712402
51
89.3814885
0
ARC
8
DEFAULT_255_2_778
10
18.7499422
20
0.3713012
40
14.0341616
50
168.1172684
51
169.1435323
0
ARC
8
DEFAULT_255_2_778
10
23.9329823
20
-0.7169245
40
19.3302108
50
167.2929891
51
168.1241738
0
ARC
8
DEFAULT_255_2_778
10
29.2939387
20
-1.9221623
40
24.8249758
50
166.6932204
51
167.3010835
0
ARC
8
DEFAULT_255_2_778
10
35.2411347
20
-3.3304531
40
30.9366387
50
166.0092116
51
166.6901742
0
ARC
8
DEFAULT_255_2_778
10
41.9955366
20
-5.0120797
40
37.8972286
50
165.3736068
51
166.0110918
0
ARC
8
DEFAULT_255_2_778
10
48.7561182
20
-6.7772648
40
44.8844556
50
164.631188
51
165.3725452
0
ARC
8
DEFAULT_255_2_778
10
53.787834
20
-8.1577663
40
50.1021125
50
163.7502717
51
164.6339642
0
ARC
8
DEFAULT_255_2_778
10
53.5253613
20
-8.0759053
40
49.8272187
50
163.0190084
51
163.7561874
0
ARC
8
DEFAULT_255_2_778
10
50.2996047
20
-7.0929215
40
46.4550148
50
162.6261647
51
163.0165798
0
ARC
8
DEFAULT_255_2_778
10
46.9509376
20
-6.044621
40
42.9460968
50
162.2116064
51
162.6268916
0
ARC
8
DEFAULT_255_2_778
10
42.3825262
20
-4.57638
40
38.1475441
50
161.6417949
51
162.2151893
0
ARC
8
DEFAULT_255_2_778
10
37.0104463
20
-2.7935159
40
32.4873455
50
161.0635952
51
161.6420667
0
ARC
8
DEFAULT_255_2_778
10
32.4072944
20
-1.2155273
40
27.6212327
50
160.570897
51
161.0610623
0
ARC
8
DEFAULT_255_2_778
10
28.2663512
20
0.2466365
40
23.229726
50
159.9472684
51
160.5744857
0
ARC
8
DEFAULT_255_2_778
10
24.4342301
20
1.6448216
40
19.1505013
50
159.342946
51
159.9456151
0
ARC
8
DEFAULT_255_2_778
10
21.1809011
20
2.8719766
40
15.6734252
50
158.6471851
51
159.3450336
0
LINE
8
DEFAULT_255_2_778
10
6.5830626
20
8.578826
11
0.9738626
21
8.578826
0
LINE
8
DEFAULT_255_2_778
10
0.4714626
20
8.076426
11
0.4714626
21
2.125326
0
LINE
8
DEFAULT_255_2_778
10
6.5833626
20
8.578826
11
6.5833626
21
8.578826
0
LINE
8
DEFAULT_255_2_778
10
6.5833626
20
8.578826
11
6.5830626
21
8.578826
0
ARC
8
DEFAULT_255_2_778
10
7.5708079
20
8.3498681
40
0.8691553
50
47.9976619
51
60.4715688
0
ARC
8
DEFAULT_255_2_778
10
7.6536981
20
8.4976148
40
0.6997467
50
60.41474
51
84.594557
0
ARC
8
DEFAULT_255_2_778
10
7.6530826
20
8.4795996
40
0.7177405
50
84.6811121
51
90.0223521
0
ARC
8
DEFAULT_255_2_778
10
7.6621146
20
8.3243215
40
0.8730682
50
90.6111194
51
109.97285
0
ARC
8
DEFAULT_255_2_778
10
7.8131851
20
7.8904113
40
1.3324971
50
109.7050337
51
120.8961743
0
ARC
8
DEFAULT_255_2_778
10
8.1506305
20
7.3199636
40
1.9952733
50
120.7998555
51
128.8511568
0
ARC
8
DEFAULT_255_2_778
10
8.4101027
20
6.980995
40
2.4220444
50
128.6012684
51
128.8265786
0
ARC
8
DEFAULT_255_2_778
10
8.5185969
20
6.8475907
40
2.5939949
50
128.8460641
51
130.9419743
0
ARC
8
DEFAULT_255_2_778
10
8.6541883
20
6.6900192
40
2.8018728
50
130.9249289
51
131.5846531
0
ARC
8
DEFAULT_255_2_778
10
9.887212
20
5.4782413
40
4.5310996
50
136.8197675
51
141.6627177
0
ARC
8
DEFAULT_255_2_778
10
11.1182273
20
4.5043465
40
6.1007712
50
141.6597991
51
146.2292041
0
ARC
8
DEFAULT_255_2_778
10
12.6491779
20
3.4810256
40
7.9422366
50
146.2317919
51
151.020332
0
ARC
8
DEFAULT_255_2_778
10
14.0284629
20
2.7152671
40
9.5198332
50
151.0106017
51
158.3840238
0
ARC
8
DEFAULT_255_2_778
10
13.4479507
20
2.9397447
40
8.8974538
50
158.3507936
51
161.7250386
0
ARC
8
DEFAULT_255_2_778
10
12.3201736
20
3.3123229
40
7.7097267
50
161.726085
51
164.6472826
0
ARC
8
DEFAULT_255_2_778
10
11.1205903
20
3.6412898
40
6.465854
50
164.6439619
51
167.5817083
0
ARC
8
DEFAULT_255_2_778
10
10.2390697
20
3.8390152
40
5.5624385
50
167.6180786
51
169.1093813
0
ARC
8
DEFAULT_255_2_778
10
2.5786851
20
3.8330979
40
2.4389971
50
18.3339565
51
25.6781427
0
ARC
8
DEFAULT_255_2_778
10
0.7902928
20
3.2164478
40
4.3306396
50
15.3101247
51
18.6356166
0
ARC
8
DEFAULT_255_2_778
10
-0.1887936
20
2.9400857
40
5.3479565
50
14.5813015
51
15.3961853
0
ARC
8
DEFAULT_255_2_778
10
0.1326372
20
3.0058005
40
5.0203256
50
12.1102312
51
13.2850781
0
ARC
8
DEFAULT_255_2_778
10
2.0198111
20
3.4095128
40
3.0904534
50
11.3496809
51
12.1322599
0
ARC
8
DEFAULT_255_2_778
10
4.2477523
20
3.8574511
40
0.8179287
50
11.0880295
51
11.2986918
0
ARC
8
DEFAULT_255_2_778
10
4.3872523
20
3.8276742
40
0.6890428
50
15.7538321
51
17.7515643
0
ARC
8
DEFAULT_255_2_778
10
2.1229789
20
3.1156797
40
3.0626133
50
17.5221953
51
18.7193268
0
ARC
8
DEFAULT_255_2_778
10
-0.4231643
20
2.2624106
40
5.7479196
50
18.6295427
51
18.9536453
0
ARC
8
DEFAULT_255_2_778
10
4.3444106
20
3.9378316
40
0.6948012
50
20.8963816
51
23.6592277
0
ARC
8
DEFAULT_255_2_778
10
3.4718047
20
3.5553987
40
1.647532
50
23.6632435
51
26.6210689
0
ARC
8
DEFAULT_255_2_778
10
0.7010347
20
2.1755838
40
4.7428564
50
26.5243249
51
28.1890977
0
ARC
8
DEFAULT_255_2_778
10
-2.3202425
20
0.5731514
40
8.1627654
50
28.0850251
51
28.4303109
0
ARC
8
DEFAULT_255_2_778
10
-3.6890932
20
-0.1672392
40
9.7190206
50
28.4267837
51
28.6159058
0
ARC
8
DEFAULT_255_2_778
10
-6.5910043
20
-1.7569674
40
13.027842
50
28.6410383
51
29.2782392
0
ARC
8
DEFAULT_255_2_778
10
-10.9346606
20
-4.1873746
40
18.0052125
50
29.2644433
51
29.5525213
0
ARC
8
DEFAULT_255_2_778
10
-14.7565925
20
-6.3520008
40
22.3975658
50
29.5473004
51
29.6101741
0
ARC
8
DEFAULT_255_2_778
10
16.2951798
20
0.7607704
40
12.2355836
50
161.1471946
51
163.3808527
0
ARC
8
DEFAULT_255_2_778
10
3.0788844
20
3.4551029
40
1.6952338
50
22.622334
51
28.3560351
0
ARC
8
DEFAULT_255_2_778
10
2.0121879
20
3.0067396
40
2.8523266
50
18.6005767
51
22.6937666
0
ARC
8
DEFAULT_255_2_778
10
0.522399
20
2.5046569
40
4.4244454
50
15.0263612
51
18.6091268
0
ARC
8
DEFAULT_255_2_778
10
-0.4904618
20
2.224344
40
5.475354
50
13.4456617
51
15.1114384
0
ARC
8
DEFAULT_255_2_778
10
-0.2888315
20
2.2710795
40
5.2683835
50
12.390764
51
13.461205
0
ARC
8
DEFAULT_255_2_778
10
0.9197104
20
2.5360476
40
4.0311359
50
11.6609442
51
12.3983005
0
ARC
8
DEFAULT_255_2_778
10
3.0488446
20
2.9743662
40
1.8573527
50
11.1221712
51
11.6938898
0
ARC
8
DEFAULT_255_2_778
10
4.3803694
20
3.1982898
40
0.5089977
50
15.3060794
51
17.5303387
0
ARC
8
DEFAULT_255_2_778
10
2.6454776
20
2.6607529
40
2.3252504
50
17.2840354
51
18.6613914
0
ARC
8
DEFAULT_255_2_778
10
-0.7728338
20
1.5111384
40
5.931697
50
18.6169765
51
19.6117669
0
ARC
8
DEFAULT_255_2_778
10
2.5299952
20
2.6910862
40
2.4244283
50
19.5427808
51
19.5670946
0
ARC
8
DEFAULT_255_2_778
10
4.1716726
20
3.2655348
40
0.6852222
50
20.2812654
51
24.8628498
0
ARC
8
DEFAULT_255_2_778
10
2.677874
20
2.5813667
40
2.328239
50
24.6830361
51
27.1114198
0
ARC
8
DEFAULT_255_2_778
10
-0.6137365
20
0.9044493
40
6.0223872
50
27.0410232
51
28.4845358
0
ARC
8
DEFAULT_255_2_778
10
-3.4657215
20
-0.6278076
40
9.2599037
50
28.4016094
51
28.6095337
0
ARC
8
DEFAULT_255_2_778
10
-5.9651824
20
-1.9969676
40
12.1097955
50
28.633916
51
29.3942739
0
ARC
8
DEFAULT_255_2_778
10
-6.9535417
20
-2.5487545
40
13.2417432
50
29.3754441
51
29.7376516
0
ARC
8
DEFAULT_255_2_778
10
-3.275974
20
-0.4459286
40
9.0054269
50
29.7267455
51
30.0554849
0
ARC
8
DEFAULT_255_2_778
10
0.572325
20
1.778836
40
4.5603199
50
30.0774903
51
30.1445533
0
ARC
8
DEFAULT_255_2_778
10
9.6512333
20
2.6693743
40
5.3226251
50
164.7548897
51
167.0042558
0
ARC
8
DEFAULT_255_2_778
10
7.1806415
20
3.2357609
40
2.7879472
50
166.9281376
51
170.2569806
0
ARC
8
DEFAULT_255_2_778
10
5.5468678
20
3.5117737
40
1.1310372
50
170.0315093
51
175.9186095
0
ARC
8
DEFAULT_255_2_778
10
4.9153752
20
3.5610466
40
0.4976568
50
176.4024474
51
179.8510368
0
ARC
8
DEFAULT_255_2_778
10
4.6585826
20
3.5594109
40
0.2408803
50
179.3031558
51
188.6156553
0
ARC
8
DEFAULT_255_2_778
10
4.4954988
20
3.5332775
40
0.075735
50
187.5506395
51
207.9738412
0
ARC
8
DEFAULT_255_2_778
10
3.5630207
20
3.0100914
40
0.9935104
50
19.7143276
51
29.3962419
0
ARC
8
DEFAULT_255_2_778
10
1.7133148
20
2.3292591
40
2.9645123
50
14.6923926
51
20.0421899
0
ARC
8
DEFAULT_255_2_778
10
-0.1255177
20
1.8148297
40
4.8737921
50
14.5524971
51
15.0594859
0
ARC
8
DEFAULT_255_2_778
10
-1.5837611
20
1.4404129
40
6.3793318
50
12.6904369
51
14.5165376
0
ARC
8
DEFAULT_255_2_778
10
-4.9235563
20
0.6931794
40
9.8016958
50
10.646022
51
12.662858
0
ARC
8
DEFAULT_255_2_778
10
-7.4027702
20
0.2153496
40
12.3265159
50
9.9386475
51
10.6999083
0
ARC
8
DEFAULT_255_2_778
10
-7.5924334
20
0.1810712
40
12.5192491
50
9.4768368
51
9.9433587
0
ARC
8
DEFAULT_255_2_778
10
-6.2828863
20
0.3987097
40
11.1917404
50
9.0378382
51
9.4816861
0
ARC
8
DEFAULT_255_2_778
10
-3.2797123
20
0.8760688
40
8.1508646
50
8.7244818
51
9.0401305
0
ARC
8
DEFAULT_255_2_778
10
1.1871782
20
1.5606743
40
3.6318167
50
8.4882223
51
8.7381761
0
ARC
8
DEFAULT_255_2_778
10
12.9204962
20
1.66417
40
8.1420209
50
177.5673885
51
179.5899455
0
ARC
8
DEFAULT_255_2_778
10
13.3892064
20
1.6583926
40
8.6107607
50
179.5738238
51
180.0004834
0
ARC
8
DEFAULT_255_2_778
10
13.5915068
20
1.6584866
40
8.813061
50
180.0010836
51
184.0682394
0
ARC
8
DEFAULT_255_2_778
10
12.9187759
20
1.614724
40
8.1389216
50
184.0969208
51
184.6991543
0
ARC
8
DEFAULT_255_2_778
10
11.6532243
20
1.5038766
40
6.8685461
50
184.6424637
51
187.9448566
0
ARC
8
DEFAULT_255_2_778
10
9.2644321
20
1.1661684
40
4.4560068
50
187.8897215
51
191.8529144
0
ARC
8
DEFAULT_255_2_778
10
7.2096991
20
0.7299085
40
2.3554821
50
191.7333383
51
197.3772532
0
ARC
8
DEFAULT_255_2_778
10
6.0766031
20
0.3782074
40
1.1690654
50
197.5126948
51
203.0300633
0
ARC
8
DEFAULT_255_2_778
10
7.8462078
20
0.8371618
40
2.9225359
50
190.2748841
51
197.6025167
0
ARC
8
DEFAULT_255_2_778
10
9.1241312
20
1.0730518
40
4.2220436
50
184.6060839
51
190.331375
0
ARC
8
DEFAULT_255_2_778
10
10.6989193
20
1.2033455
40
5.80221
50
179.9066497
51
184.639756
0
ARC
8
DEFAULT_255_2_778
10
9.7343249
20
1.2142743
40
4.8376082
50
179.9941744
51
180.0174748
0
ARC
8
DEFAULT_255_2_778
10
11.9347424
20
1.2130244
40
7.0380261
50
178.3326118
51
179.9858202
0
ARC
8
DEFAULT_255_2_778
10
12.4144365
20
1.2006574
40
7.5178771
50
177.8175387
51
178.3447758
0
ARC
8
DEFAULT_255_2_778
10
13.419516
20
1.1558994
40
8.5239345
50
173.5380481
51
177.7741825
0
ARC
8
DEFAULT_255_2_778
10
15.3753393
20
0.9379323
40
10.4918634
50
169.7789374
51
173.5573396
0
ARC
8
DEFAULT_255_2_778
10
17.1772509
20
0.6143646
40
12.3225956
50
165.9366896
51
169.7850293
0
ARC
8
DEFAULT_255_2_778
10
18.633071
20
0.2521881
40
13.8227885
50
161.9984889
51
165.9467788
0
ARC
8
DEFAULT_255_2_778
10
19.2252026
20
0.066747
40
14.443245
50
161.3037118
51
162.0247904
0
ARC
8
DEFAULT_255_2_778
10
18.8156545
20
-0.3248674
40
14.1897316
50
155.7977368
51
159.2753642
0
ARC
8
DEFAULT_255_2_778
10
17.8035885
20
0.13156
40
13.0795057
50
152.4966145
51
155.8038853
0
ARC
8
DEFAULT_255_2_778
10
16.5201376
20
0.8009375
40
11.6319866
50
149.2657353
51
152.5016778
0
ARC
8
DEFAULT_255_2_778
10
15.1056889
20
1.6436274
40
9.9855391
50
145.8771314
51
149.2741549
0
ARC
8
DEFAULT_255_2_778
10
13.6905146
20
2.6039021
40
8.2753214
50
142.2980417
51
145.8846157
0
ARC
8
DEFAULT_255_2_778
10
12.5091079
20
3.5148142
40
6.7835176
50
139.1061759
51
142.2830234
0
ARC
8
DEFAULT_255_2_778
10
11.7284915
20
4.1872121
40
5.7532399
50
136.8404816
51
139.0787291
0
ARC
8
DEFAULT_255_2_778
10
11.154058
20
4.7269269
40
4.965036
50
134.1844116
51
136.8493129
0
ARC
8
DEFAULT_255_2_778
10
10.6216469
20
5.2753668
40
4.2006751
50
131.1972894
51
134.1906032
0
ARC
8
DEFAULT_255_2_778
10
10.2098161
20
5.7445588
40
3.5763796
50
128.585103
51
131.1837471
0
ARC
8
DEFAULT_255_2_778
10
9.3153695
20
7.0666525
40
1.9890326
50
132.1993278
51
136.1964236
0
ARC
8
DEFAULT_255_2_778
10
9.8884344
20
6.5153961
40
2.7841966
50
136.1720927
51
139.3321478
0
ARC
8
DEFAULT_255_2_778
10
10.6668537
20
5.8459277
40
3.810902
50
139.3243743
51
142.0329607
0
ARC
8
DEFAULT_255_2_778
10
11.7168674
20
5.0257177
40
5.1432958
50
142.025743
51
144.3514687
0
ARC
8
DEFAULT_255_2_778
10
12.9550679
20
4.1347299
40
6.6687451
50
144.3309707
51
146.0260387
0
ARC
8
DEFAULT_255_2_778
10
14.291303
20
3.2332401
40
8.2806407
50
146.0198927
51
147.4477473
0
ARC
8
DEFAULT_255_2_778
10
16.0766231
20
2.0963315
40
10.3972238
50
147.460549
51
149.1304926
0
ARC
8
DEFAULT_255_2_778
10
18.4870406
20
0.6549141
40
13.205746
50
149.1284294
51
150.6620322
0
ARC
8
DEFAULT_255_2_778
10
21.8861786
20
-1.2478626
40
17.1012132
50
150.6845027
51
152.7014642
0
ARC
8
DEFAULT_255_2_778
10
25.2842665
20
-3.0102332
40
20.9291242
50
152.680551
51
154.3174809
0
ARC
8
DEFAULT_255_2_778
10
26.2338621
20
-3.4731167
40
21.9855156
50
154.3028471
51
155.2724535
0
ARC
8
DEFAULT_255_2_778
10
25.1403366
20
-2.9711495
40
20.7822838
50
155.2683581
51
156.1231843
0
ARC
8
DEFAULT_255_2_778
10
22.9371597
20
-1.9957749
40
18.3728558
50
156.1235476
51
156.7936505
0
ARC
8
DEFAULT_255_2_778
10
19.9795176
20
-0.7299903
40
15.1557373
50
156.7858311
51
157.6173952
0
ARC
8
DEFAULT_255_2_778
10
16.5562384
20
0.6795582
40
11.4536207
50
157.6164259
51
158.4321045
0
ARC
8
DEFAULT_255_2_778
10
13.324479
20
1.9553097
40
7.9791699
50
158.4207632
51
159.4426569
0
ARC
8
DEFAULT_255_2_778
10
22.8585065
20
-1.6192262
40
18.1612616
50
159.4455242
51
162.3159726
0
ARC
8
DEFAULT_255_2_778
10
20.0251939
20
-0.718497
40
15.1882217
50
162.3065346
51
165.8811416
0
ARC
8
DEFAULT_255_2_778
10
17.8145247
20
-0.1618977
40
12.9085593
50
165.8834833
51
169.8796278
0
ARC
8
DEFAULT_255_2_778
10
6.572841
20
1.6247215
40
1.5431162
50
150.1566698
51
161.8132071
0
ARC
8
DEFAULT_255_2_778
10
6.7357493
20
1.5298236
40
1.7316458
50
139.7977657
51
150.1154641
0
ARC
8
DEFAULT_255_2_778
10
6.939794
20
1.3592869
40
1.9975688
50
132.5511143
51
139.8395679
0
ARC
8
DEFAULT_255_2_778
10
7.0438122
20
1.2501447
40
2.148315
50
131.7037416
51
132.6263327
0
ARC
8
DEFAULT_255_2_778
10
7.1308164
20
1.1494876
40
2.281348
50
125.6508016
51
131.6533058
0
ARC
8
DEFAULT_255_2_778
10
7.2049716
20
1.0485285
40
2.406607
50
121.5454741
51
125.6844654
0
ARC
8
DEFAULT_255_2_778
10
7.1707979
20
1.105301
40
2.3403453
50
118.6947273
51
121.5596315
0
ARC
8
DEFAULT_255_2_778
10
7.0480095
20
1.3305555
40
2.0837983
50
116.3702021
51
118.7069767
0
ARC
8
DEFAULT_255_2_778
10
6.836295
20
1.758886
40
1.6060018
50
114.4135861
51
116.3904357
0
ARC
8
DEFAULT_255_2_778
10
6.5369136
20
2.4204491
40
0.8798519
50
112.8122464
51
114.4673143
0
ARC
8
DEFAULT_255_2_778
10
6.2835552
20
3.0214871
40
0.2275972
50
112.2399823
51
112.6836792
0
ARC
8
DEFAULT_255_2_778
10
3.2721356
20
5.596475
40
3.7612852
50
321.0535118
51
321.449803
0
ARC
8
DEFAULT_255_2_778
10
-0.6882485
20
8.75709
40
8.8282492
50
321.4258755
51
321.877391
0
ARC
8
DEFAULT_255_2_778
10
-3.629383
20
11.0675475
40
12.5683672
50
321.8686448
51
322.2967823
0
ARC
8
DEFAULT_255_2_778
10
-5.9826526
20
12.8859327
40
15.5423211
50
322.2986473
51
322.9104617
0
ARC
8
DEFAULT_255_2_778
10
-7.7879128
20
14.2515091
40
17.8058943
50
322.9084417
51
323.6447749
0
ARC
8
DEFAULT_255_2_778
10
-8.7456522
20
14.9573791
40
18.9956492
50
323.6425443
51
324.5783973
0
ARC
8
DEFAULT_255_2_778
10
-8.8311376
20
15.0193554
40
19.1012327
50
324.5755216
51
325.4595876
0
ARC
8
DEFAULT_255_2_778
10
-8.3299368
20
14.6751866
40
18.493241
50
325.4575008
51
326.4545479
0
ARC
8
DEFAULT_255_2_778
10
13.4155043
20
-23.2437618
40
28.4141964
50
102.8768714
51
103.1425685
0
ARC
8
DEFAULT_255_2_778
10
11.7986233
20
-16.3469609
40
21.3304041
50
103.1254542
51
103.7870272
0
ARC
8
DEFAULT_255_2_778
10
10.0942862
20
-9.3899039
40
14.1676256
50
103.7980632
51
104.3779307
0
ARC
8
DEFAULT_255_2_778
10
8.6441355
20
-3.7623879
40
8.3562761
50
104.3277154
51
105.6289956
0
ARC
8
DEFAULT_255_2_778
10
7.4147168
20
0.623721
40
3.801124
50
105.5941268
51
107.5566378
0
ARC
8
DEFAULT_255_2_778
10
6.7187028
20
2.8176157
40
1.4994722
50
107.4875436
51
110.6136182
0
ARC
8
DEFAULT_255_2_778
10
6.4396812
20
3.5678156
40
0.6990761
50
110.8563002
51
112.6547743
0
ARC
8
DEFAULT_255_2_778
10
10.6105899
20
-6.3836729
40
11.489284
50
112.734563
51
113.4342909
0
ARC
8
DEFAULT_255_2_778
10
8.6364923
20
-1.8298362
40
6.5259696
50
113.432359
51
114.1959506
0
ARC
8
DEFAULT_255_2_778
10
7.2124414
20
1.3317469
40
3.0584766
50
114.1370377
51
115.4096135
0
ARC
8
DEFAULT_255_2_778
10
6.2288104
20
3.3961548
40
0.7717143
50
115.2115418
51
117.2057057
0
ARC
8
DEFAULT_255_2_778
10
7.142885
20
1.9953275
40
2.4415795
50
120.8690187
51
121.2595043
0
ARC
8
DEFAULT_255_2_778
10
8.6872925
20
-0.5835424
40
5.4475339
50
120.473489
51
120.8950092
0
ARC
8
DEFAULT_255_2_778
10
9.8810514
20
-2.6124178
40
7.8015508
50
119.8511227
51
120.473009
0
ARC
8
DEFAULT_255_2_778
10
10.6601403
20
-3.9684945
40
9.3654955
50
119.0773914
51
119.8556264
0
ARC
8
DEFAULT_255_2_778
10
10.9123814
20
-4.4203098
40
9.8829527
50
118.0438848
51
119.0824451
0
ARC
8
DEFAULT_255_2_778
10
10.6586914
20
-3.9400835
40
9.3398391
50
116.5089546
51
118.0553787
0
ARC
8
DEFAULT_255_2_778
10
10.2479025
20
-3.1207223
40
8.4232715
50
115.7715096
51
116.4961075
0
ARC
8
DEFAULT_255_2_778
10
9.7039289
20
-1.9815879
40
7.1609323
50
113.4691668
51
115.814791
0
ARC
8
DEFAULT_255_2_778
10
9.0672687
20
-0.5204877
40
5.5671492
50
111.4824632
51
113.447544
0
ARC
8
DEFAULT_255_2_778
10
8.6082575
20
0.6498226
40
4.3100435
50
108.9058043
51
111.5019155
0
ARC
8
DEFAULT_255_2_778
10
8.3509505
20
1.3903617
40
3.5260855
50
107.8158723
51
108.8492332
0
ARC
8
DEFAULT_255_2_778
10
-6.5500532
20
13.52112
40
16.3716604
50
327.5942257
51
327.9392168
0
ARC
8
DEFAULT_255_2_778
10
-6.2002692
20
13.3021405
40
15.9589851
50
327.9388938
51
328.2969195
0
ARC
8
DEFAULT_255_2_778
10
-5.235901
20
12.7108139
40
14.8277652
50
328.2826158
51
329.8062296
0
ARC
8
DEFAULT_255_2_778
10
-1.7595802
20
10.7403213
40
10.832161
50
329.5672679
51
335.9827702
0
ARC
8
DEFAULT_255_2_778
10
1.7295133
20
9.1544451
40
6.9997307
50
336.2158541
51
340.2315733
0
ARC
8
DEFAULT_255_2_778
10
3.4147854
20
8.5481977
40
5.2087319
50
340.2373802
51
344.591048
0
ARC
8
DEFAULT_255_2_778
10
4.6412585
20
8.2096242
40
3.9363844
50
344.5986297
51
349.2891578
0
ARC
8
DEFAULT_255_2_778
10
5.5960392
20
8.0309033
40
2.965023
50
349.2535781
51
355.348923
0
ARC
8
DEFAULT_255_2_778
10
6.2247313
20
7.97615
40
2.333964
50
355.4371487
51
359.9307447
0
ARC
8
DEFAULT_255_2_778
10
6.7009415
20
7.9793101
40
1.8577617
50
359.8155313
51
8.1552268
0
ARC
8
DEFAULT_255_2_778
10
7.1406182
20
8.0446888
40
1.4132588
50
8.0600738
51
20.7905394
0
ARC
8
DEFAULT_255_2_778
10
7.3899575
20
8.1395448
40
1.1464862
50
20.7817579
51
45.2189229
0
ARC
8
DEFAULT_255_2_778
10
7.3644008
20
8.1130242
40
1.1833127
50
45.2451106
51
48.2652125
0
LINE
8
DEFAULT_255_2_778
10
6.7945127
20
8.7857526
11
6.5831127
21
8.5788526
0
LINE
8
DEFAULT_255_2_778
10
4.9869127
20
4.2864526
11
5.0186127
21
4.1594526
0
LINE
8
DEFAULT_255_2_778
10
5.0131127
20
4.1293526
11
4.9935127
21
4.1856526
0
LINE
8
DEFAULT_255_2_778
10
4.7792127
20
2.0967526
11
4.7858127
21
2.0097526
0
LINE
8
DEFAULT_255_2_778
10
5.0007127
20
-0.0791474
11
5.0605127
21
-0.0466474
0
ENDSEC
0
EOF