0
SECTION
2
HEADER
9
$MEASUREMENT
70
1
0
ENDSEC
0
SECTION
2
TABLES
0
TABLE
2
LTYPE
0
LTYPE
72
65
70
64
2
CONTINUOUS
3
______
73
0
40
0
0
ENDTAB
0
TABLE
2
LAYER
0
LAYER
2
DEFAULT_255_2_778
70
0
62
255
6
CONTINUOUS
0
ENDTAB
0
ENDSEC
0
SECTION
2
ENTITIES
0
LINE
8
DEFAULT_255_2_778
10
12.2584407
20
-0.132267
11
12.5158407
21
-0.132267
0
LINE
8
DEFAULT_255_2_778
10
12.5158407
20
-0.132267
11
16.7169407
21
1.968533
0
LINE
8
DEFAULT_255_2_778
10
16.7169407
20
1.968533
11
16.7867407
21
2.067533
0
LINE
8
DEFAULT_255_2_778
10
16.7867407
20
2.067533
11
16.7867407
21
18.836033
0
LINE
8
DEFAULT_255_2_778
10
16.7867407
20
18.836033
11
16.7169407
21
18.935233
0
LINE
8
DEFAULT_255_2_778
10
16.7169407
20
18.935233
11
12.5158407
21
21.034433
0
LINE
8
DEFAULT_255_2_778
10
12.5158407
20
21.034433
11
12.2552407
21
21.034433
0
LINE
8
DEFAULT_255_2_778
10
12.2552407
20
21.034433
11
12.2584407
21
-0.132267
0
LINE
8
DEFAULT_255_2_778
10
6.7912719
20
-0.132267
11
6.5303719
21
-0.132267
0
LINE
8
DEFAULT_255_2_778
10
6.5303719
20
-0.132267
11
2.3327719
21
1.968533
0
LINE
8
DEFAULT_255_2_778
10
2.3327719
20
1.968533
11
2.2475719
21
2.115133
0
LINE
8
DEFAULT_255_2_778
10
2.2475719
20
2.115133
11
2.2044719
21
18.750833
0
LINE
8
DEFAULT_255_2_778
10
2.2044719
20
18.750833
11
2.3327719
21
18.935533
0
LINE
8
DEFAULT_255_2_778
10
2.3327719
20
18.935533
11
6.5303719
21
21.034433
0
LINE
8
DEFAULT_255_2_778
10
6.5303719
20
21.034433
11
6.7947719
21
21.034433
0
LINE
8
DEFAULT_255_2_778
10
6.7947719
20
21.034433
11
6.7915719
21
-0.132267
0
LINE
8
DEFAULT_255_2_778
10
6.5378865
20
21.034433
11
12.5118865
21
21.034433
0
LINE
8
DEFAULT_255_2_778
10
12.5118865
20
21.034433
11
12.5118865
21
-0.132267
0
LINE
8
DEFAULT_255_2_778
10
12.5118865
20
-0.132267
11
6.5378865
21
-0.132267
0
LINE
8
DEFAULT_255_2_778
10
6.5378865
20
-0.132267
11
6.5378865
21
21.034433
0
LINE
8
DEFAULT_255_2_778
10
6.5378865
20
21.034433
11
6.5378865
21
21.034433
0
LINE
8
DEFAULT_255_2_778
10
18.9160794
20
10.9267352
11
18.7740794
21
10.9582352
0
LINE
8
DEFAULT_255_2_778
10
18.7740794
20
10.9582352
11
16.7470794
21
11.1471352
0
LINE
8
DEFAULT_255_2_778
10
16.7470794
20
11.1471352
11
16.7168794
21
11.1320352
0
LINE
8
DEFAULT_255_2_778
10
16.7168794
20
11.1320352
11
12.5121794
21
11.3003352
0
LINE
8
DEFAULT_255_2_778
10
12.5121794
20
11.3003352
11
6.5378794
21
11.3003352
0
LINE
8
DEFAULT_255_2_778
10
6.5378794
20
11.3003352
11
2.3328794
21
11.1320352
0
LINE
8
DEFAULT_255_2_778
10
2.3328794
20
11.1320352
11
2.3328794
21
14.3385352
0
LINE
8
DEFAULT_255_2_778
10
2.3328794
20
14.3385352
11
2.3283794
21
14.3361352
0
LINE
8
DEFAULT_255_2_778
10
2.3283794
20
14.3361352
11
2.3328794
21
14.3454352
0
LINE
8
DEFAULT_255_2_778
10
2.3328794
20
14.3454352
11
6.5378794
21
15.3196352
0
LINE
8
DEFAULT_255_2_778
10
6.5378794
20
15.3196352
11
12.5121794
21
15.3196352
0
LINE
8
DEFAULT_255_2_778
10
12.5121794
20
15.3196352
11
16.7168794
21
14.3454352
0
LINE
8
DEFAULT_255_2_778
10
16.7168794
20
14.3454352
11
18.2625794
21
13.5239352
0
LINE
8
DEFAULT_255_2_778
10
18.2625794
20
13.5239352
11
18.2625794
21
14.0523352
0
LINE
8
DEFAULT_255_2_778
10
18.2625794
20
14.0523352
11
18.9158794
21
14.1237352
0
LINE
8
DEFAULT_255_2_778
10
18.9158794
20
14.1237352
11
18.8480794
21
14.2557352
0
LINE
8
DEFAULT_255_2_778
10
18.8480794
20
14.2557352
11
16.7795794
21
15.7347352
0
LINE
8
DEFAULT_255_2_778
10
16.7795794
20
15.7347352
11
16.7166794
21
15.7144352
0
LINE
8
DEFAULT_255_2_778
10
16.7166794
20
15.7144352
11
12.5118794
21
17.0172352
0
LINE
8
DEFAULT_255_2_778
10
12.5118794
20
17.0172352
11
6.5375794
21
17.0172352
0
LINE
8
DEFAULT_255_2_778
10
6.5375794
20
17.0172352
11
2.3328794
21
15.7141352
0
LINE
8
DEFAULT_255_2_778
10
2.3328794
20
15.7141352
11
2.3328794
21
18.9354352
0
LINE
8
DEFAULT_255_2_778
10
2.3328794
20
18.9354352
11
0.1338794
21
16.3592352
0
LINE
8
DEFAULT_255_2_778
10
0.1338794
20
16.3592352
11
0.1338794
21
14.1091352
0
LINE
8
DEFAULT_255_2_778
10
0.1338794
20
14.1091352
11
0.1507794
21
14.1216352
0
LINE
8
DEFAULT_255_2_778
10
0.1507794
20
14.1216352
11
0.7871794
21
14.0523352
0
LINE
8
DEFAULT_255_2_778
10
0.7871794
20
14.0523352
11
0.7871794
21
13.5130352
0
LINE
8
DEFAULT_255_2_778
10
0.7871794
20
13.5130352
11
0.1338794
21
13.1635352
0
LINE
8
DEFAULT_255_2_778
10
0.1338794
20
13.1635352
11
0.1338794
21
10.9249352
0
LINE
8
DEFAULT_255_2_778
10
0.1338794
20
10.9249352
11
0.1507794
21
10.9267352
0
LINE
8
DEFAULT_255_2_778
10
0.1507794
20
10.9267352
11
0.7871794
21
10.9175352
0
LINE
8
DEFAULT_255_2_778
10
0.7871794
20
10.9175352
11
0.7871794
21
9.9779352
0
LINE
8
DEFAULT_255_2_778
10
0.7871794
20
9.9779352
11
0.2380794
21
9.9697352
0
LINE
8
DEFAULT_255_2_778
10
0.2380794
20
9.9697352
11
0.1338794
21
9.9795352
0
LINE
8
DEFAULT_255_2_778
10
0.1338794
20
9.9795352
11
0.1338794
21
7.7401352
0
LINE
8
DEFAULT_255_2_778
10
0.1338794
20
7.7401352
11
0.7871794
21
7.3887352
0
LINE
8
DEFAULT_255_2_778
10
0.7871794
20
7.3887352
11
0.7871794
21
6.8434352
0
LINE
8
DEFAULT_255_2_778
10
0.7871794
20
6.8434352
11
0.1611794
21
6.7744352
0
LINE
8
DEFAULT_255_2_778
10
0.1611794
20
6.7744352
11
0.1338794
21
6.7947352
0
LINE
8
DEFAULT_255_2_778
10
0.1338794
20
6.7947352
11
0.1338794
21
4.5452352
0
LINE
8
DEFAULT_255_2_778
10
0.1338794
20
4.5452352
11
2.3328794
21
1.9687352
0
LINE
8
DEFAULT_255_2_778
10
2.3328794
20
1.9687352
11
2.3328794
21
5.1895352
0
LINE
8
DEFAULT_255_2_778
10
2.3328794
20
5.1895352
11
6.5378794
21
3.8867352
0
LINE
8
DEFAULT_255_2_778
10
6.5378794
20
3.8867352
11
12.5121794
21
3.8867352
0
LINE
8
DEFAULT_255_2_778
10
12.5121794
20
3.8867352
11
16.7293794
21
5.1935352
0
LINE
8
DEFAULT_255_2_778
10
16.7293794
20
5.1935352
11
16.7854794
21
5.1689352
0
LINE
8
DEFAULT_255_2_778
10
16.7854794
20
5.1689352
11
18.8266794
21
6.6262352
0
LINE
8
DEFAULT_255_2_778
10
18.8266794
20
6.6262352
11
18.9160794
21
6.7714352
0
LINE
8
DEFAULT_255_2_778
10
18.9160794
20
6.7714352
11
18.2628794
21
6.8434352
0
LINE
8
DEFAULT_255_2_778
10
18.2628794
20
6.8434352
11
18.2628794
21
7.3779352
0
LINE
8
DEFAULT_255_2_778
10
18.2628794
20
7.3779352
11
18.1771794
21
7.4120352
0
LINE
8
DEFAULT_255_2_778
10
18.1771794
20
7.4120352
11
16.7798794
21
6.6590352
0
LINE
8
DEFAULT_255_2_778
10
16.7798794
20
6.6590352
11
16.7293794
21
6.5534352
0
LINE
8
DEFAULT_255_2_778
10
16.7293794
20
6.5534352
11
12.5121794
21
5.5848352
0
LINE
8
DEFAULT_255_2_778
10
12.5121794
20
5.5848352
11
12.5121794
21
5.5837352
0
LINE
8
DEFAULT_255_2_778
10
12.5121794
20
5.5837352
11
6.5378794
21
5.5837352
0
LINE
8
DEFAULT_255_2_778
10
6.5378794
20
5.5837352
11
6.5378794
21
5.5848352
0
LINE
8
DEFAULT_255_2_778
10
6.5378794
20
5.5848352
11
2.3328794
21
6.5571352
0
LINE
8
DEFAULT_255_2_778
10
2.3328794
20
6.5571352
11
2.3328794
21
9.7753352
0
LINE
8
DEFAULT_255_2_778
10
2.3328794
20
9.7753352
11
6.5378794
21
9.6078352
0
LINE
8
DEFAULT_255_2_778
10
6.5378794
20
9.6078352
11
6.5378794
21
9.6035352
0
LINE
8
DEFAULT_255_2_778
10
6.5378794
20
9.6035352
11
12.5121794
21
9.6035352
0
LINE
8
DEFAULT_255_2_778
10
12.5121794
20
9.6035352
11
16.7168794
21
9.7753352
0
LINE
8
DEFAULT_255_2_778
10
16.7168794
20
9.7753352
11
16.8126794
21
9.7313352
0
LINE
8
DEFAULT_255_2_778
10
16.8126794
20
9.7313352
11
18.7774794
21
9.9004352
0
LINE
8
DEFAULT_255_2_778
10
18.7774794
20
9.9004352
11
18.9160794
21
9.9681352
0
LINE
8
DEFAULT_255_2_778
10
18.9160794
20
9.9681352
11
18.2628794
21
9.9774352
0
LINE
8
DEFAULT_255_2_778
10
18.2628794
20
9.9774352
11
18.2628794
21
10.9169352
0
LINE
8
DEFAULT_255_2_778
10
18.2628794
20
10.9169352
11
18.9160794
21
10.9262352
0
LINE
8
DEFAULT_255_2_778
10
16.716924
20
5.1895675
11
16.716924
21
1.9685675
0
LINE
8
DEFAULT_255_2_778
10
16.716924
20
1.9685675
11
18.915924
21
4.5450675
0
LINE
8
DEFAULT_255_2_778
10
18.915924
20
4.5450675
11
18.915924
21
6.7799675
0
LINE
8
DEFAULT_255_2_778
10
18.915924
20
6.7799675
11
16.729624
21
5.1932675
0
LINE
8
DEFAULT_255_2_778
10
16.729624
20
5.1932675
11
16.716924
21
5.1895675
0
LINE
8
DEFAULT_255_2_778
10
16.716924
20
6.5500675
11
16.729624
21
6.5529675
0
LINE
8
DEFAULT_255_2_778
10
16.729624
20
6.5529675
11
18.915924
21
7.7290675
0
LINE
8
DEFAULT_255_2_778
10
18.915924
20
7.7290675
11
18.915924
21
9.9774675
0
LINE
8
DEFAULT_255_2_778
10
18.915924
20
9.9774675
11
16.716924
21
9.7750675
0
LINE
8
DEFAULT_255_2_778
10
16.716924
20
9.7750675
11
16.716924
21
6.5497675
0
LINE
8
DEFAULT_255_2_778
10
16.729624
20
14.3428675
11
16.716924
21
14.3457675
0
LINE
8
DEFAULT_255_2_778
10
16.716924
20
14.3457675
11
16.716924
21
11.1320675
0
LINE
8
DEFAULT_255_2_778
10
16.716924
20
11.1320675
11
18.915924
21
10.9265675
0
LINE
8
DEFAULT_255_2_778
10
18.915924
20
10.9265675
11
18.915924
21
13.1741675
0
LINE
8
DEFAULT_255_2_778
10
18.915924
20
13.1741675
11
16.729624
21
14.3425675
0
LINE
8
DEFAULT_255_2_778
10
16.729624
20
15.7017675
11
18.915924
21
14.1237675
0
LINE
8
DEFAULT_255_2_778
10
18.915924
20
14.1237675
11
18.915924
21
16.3586675
0
LINE
8
DEFAULT_255_2_778
10
18.915924
20
16.3586675
11
16.716924
21
18.9354675
0
LINE
8
DEFAULT_255_2_778
10
16.716924
20
18.9354675
11
16.716924
21
15.7141675
0
LINE
8
DEFAULT_255_2_778
10
16.716924
20
15.7141675
11
16.729624
21
15.7096675
0
LINE
8
DEFAULT_255_2_778
10
16.729624
20
15.7096675
11
16.729624
21
15.7014675
0
ENDSEC
0
EOF