0
SECTION
2
HEADER
9
$MEASUREMENT
70
1
0
ENDSEC
0
SECTION
2
TABLES
0
TABLE
2
LTYPE
0
LTYPE
72
65
70
64
2
CONTINUOUS
3
______
73
0
40
0
0
ENDTAB
0
TABLE
2
LAYER
0
LAYER
2
DEFAULT_255_2_778
70
0
62
255
6
CONTINUOUS
0
ENDTAB
0
ENDSEC
0
SECTION
2
ENTITIES
0
ARC
8
DEFAULT_255_2_778
10
3.7686257
20
2.6564915
40
0.8542514
50
295.6494572
51
330.3507885
0
ARC
8
DEFAULT_255_2_778
10
3.5521866
20
2.8047819
40
1.1159229
50
329.231176
51
359.7708429
0
ARC
8
DEFAULT_255_2_778
10
3.6511748
20
2.8088803
40
1.0169617
50
359.5176299
51
42.4584814
0
ARC
8
DEFAULT_255_2_778
10
3.628926
20
2.7764355
40
1.0553159
50
42.9426411
51
74.6177005
0
ARC
8
DEFAULT_255_2_778
10
3.5739497
20
2.5945672
40
1.2452613
50
74.3984635
51
90.2277198
0
ARC
8
DEFAULT_255_2_778
10
3.0444729
20
2.6007744
40
0.3520291
50
0.1699651
51
88.742173
0
ARC
8
DEFAULT_255_2_778
10
3.0433029
20
2.6042168
40
0.3532057
50
270.3727043
51
359.6109768
0
ARC
8
DEFAULT_255_2_778
10
3.7201989
20
0.8912691
40
1.1035652
50
269.7041431
51
298.1434016
0
ARC
8
DEFAULT_255_2_778
10
3.7250088
20
0.8686027
40
1.0813289
50
298.4851719
51
356.0137772
0
ARC
8
DEFAULT_255_2_778
10
3.6606109
20
0.8800743
40
1.1463896
50
355.6655603
51
0.0072165
0
ARC
8
DEFAULT_255_2_778
10
3.782267
20
0.8952201
40
1.0248433
50
359.1612872
51
0.0003134
0
ARC
8
DEFAULT_255_2_778
10
3.7168309
20
0.8860494
40
1.0903181
50
0.4822199
51
46.914287
0
ARC
8
DEFAULT_255_2_778
10
3.782158
20
0.964578
40
0.9883593
50
46.5704202
51
68.8915355
0
ARC
8
DEFAULT_255_2_778
10
3.1217193
20
-0.0141977
40
1.3973203
50
89.2832247
51
90.1360871
0
ARC
8
DEFAULT_255_2_778
10
3.1467541
20
1.2327578
40
0.1504453
50
72.8564398
51
92.8783457
0
ARC
8
DEFAULT_255_2_778
10
3.1385483
20
1.0032389
40
0.3769609
50
0.3921114
51
81.9862913
0
ARC
8
DEFAULT_255_2_778
10
3.1389385
20
1.0043015
40
0.376565
50
273.9228341
51
0.2308524
0
ARC
8
DEFAULT_255_2_778
10
20.0696375
20
0.7141724
40
0.9138585
50
180.3920871
51
252.5491296
0
ARC
8
DEFAULT_255_2_778
10
20.1329553
20
0.8503783
40
1.0629636
50
251.4949074
51
270.1587488
0
ARC
8
DEFAULT_255_2_778
10
22.2739808
20
0.8270667
40
1.0396658
50
269.6649134
51
298.1511495
0
ARC
8
DEFAULT_255_2_778
10
22.3455151
20
0.7096109
40
0.9023868
50
297.6649907
51
359.8925587
0
ARC
8
DEFAULT_255_2_778
10
21.905988
20
0.8377311
40
0.149933
50
269.0493421
51
0.9506767
0
ARC
8
DEFAULT_255_2_778
10
20.4974744
20
0.8377927
40
0.1499936
50
179.0732558
51
270.9267442
0
LINE
8
DEFAULT_255_2_778
10
3.5690004
20
3.8398187
11
0.1323004
21
3.8398187
0
LINE
8
DEFAULT_255_2_778
10
0.1323004
20
3.8398187
11
0.1323004
21
2.9527187
0
LINE
8
DEFAULT_255_2_778
10
0.1323004
20
2.9527187
11
3.0522004
21
2.9527187
0
LINE
8
DEFAULT_255_2_778
10
3.0456004
20
2.2510187
11
0.1323004
21
2.2510187
0
LINE
8
DEFAULT_255_2_778
10
0.1323004
20
2.2510187
11
0.1323004
21
-0.2122813
0
LINE
8
DEFAULT_255_2_778
10
0.1323004
20
-0.2122813
11
3.7145004
21
-0.2122813
0
LINE
8
DEFAULT_255_2_778
10
4.1381004
20
1.8866187
11
4.1384004
21
1.8864187
0
LINE
8
DEFAULT_255_2_778
10
3.1650004
20
0.6283187
11
3.0258004
21
0.6283187
0
LINE
8
DEFAULT_255_2_778
10
3.0258004
20
0.6283187
11
1.3240004
21
0.6283187
0
LINE
8
DEFAULT_255_2_778
10
1.3240004
20
0.6283187
11
1.3240004
21
1.3831187
0
LINE
8
DEFAULT_255_2_778
10
1.3240004
20
1.3831187
11
3.1184004
21
1.3831187
0
LINE
8
DEFAULT_255_2_778
10
3.1647004
20
0.6286187
11
3.1650004
21
0.6283187
0
LINE
8
DEFAULT_255_2_778
10
7.1509004
20
3.8398187
11
5.2837004
21
-0.2191813
0
LINE
8
DEFAULT_255_2_778
10
5.2837004
20
-0.2191813
11
6.5484004
21
-0.2191813
0
LINE
8
DEFAULT_255_2_778
10
6.5484004
20
-0.2191813
11
7.8661004
21
2.8598187
0
LINE
8
DEFAULT_255_2_778
10
7.8661004
20
2.8598187
11
8.7932004
21
0.6812187
0
LINE
8
DEFAULT_255_2_778
10
8.7932004
20
0.6812187
11
7.8661004
21
0.6812187
0
LINE
8
DEFAULT_255_2_778
10
7.8661004
20
0.6812187
11
7.8661004
21
-0.2193813
0
LINE
8
DEFAULT_255_2_778
10
7.8661004
20
-0.2193813
11
10.4484004
21
-0.2193813
0
LINE
8
DEFAULT_255_2_778
10
10.4484004
20
-0.2193813
11
8.5812004
21
3.8398187
0
LINE
8
DEFAULT_255_2_778
10
8.5812004
20
3.8398187
11
7.1509004
21
3.8398187
0
LINE
8
DEFAULT_255_2_778
10
11.2829004
20
3.8398187
11
11.2829004
21
-0.2191813
0
LINE
8
DEFAULT_255_2_778
10
11.2829004
20
-0.2191813
11
14.2825004
21
-0.2191813
0
LINE
8
DEFAULT_255_2_778
10
14.2825004
20
-0.2191813
11
14.2825004
21
0.6881187
0
LINE
8
DEFAULT_255_2_778
10
14.2825004
20
0.6881187
11
12.4748004
21
0.6881187
0
LINE
8
DEFAULT_255_2_778
10
12.4748004
20
0.6881187
11
12.4748004
21
3.8398187
0
LINE
8
DEFAULT_255_2_778
10
12.4748004
20
3.8398187
11
11.2829004
21
3.8398187
0
LINE
8
DEFAULT_255_2_778
10
15.3088004
20
3.8398187
11
15.3088004
21
-0.2191813
0
LINE
8
DEFAULT_255_2_778
10
15.3088004
20
-0.2191813
11
18.3150004
21
-0.2191813
0
LINE
8
DEFAULT_255_2_778
10
18.3150004
20
-0.2191813
11
18.3150004
21
0.6881187
0
LINE
8
DEFAULT_255_2_778
10
18.3150004
20
0.6881187
11
16.5007004
21
0.6881187
0
LINE
8
DEFAULT_255_2_778
10
16.5007004
20
0.6881187
11
16.5007004
21
3.8398187
0
LINE
8
DEFAULT_255_2_778
10
16.5007004
20
3.8398187
11
15.3088004
21
3.8398187
0
LINE
8
DEFAULT_255_2_778
10
19.1558004
20
3.8398187
11
19.1558004
21
0.7079187
0
LINE
8
DEFAULT_255_2_778
10
20.1359004
20
-0.2125813
11
22.2679004
21
-0.2125813
0
LINE
8
DEFAULT_255_2_778
10
23.2479004
20
0.7079187
11
23.2479004
21
3.8398187
0
LINE
8
DEFAULT_255_2_778
10
23.2479004
20
3.8398187
11
22.0559004
21
3.8398187
0
LINE
8
DEFAULT_255_2_778
10
22.0559004
20
3.8398187
11
22.0559004
21
0.8402187
0
LINE
8
DEFAULT_255_2_778
10
21.9035004
20
0.6878187
11
20.4999004
21
0.6878187
0
LINE
8
DEFAULT_255_2_778
10
20.3475004
20
0.8402187
11
20.3475004
21
3.8398187
0
LINE
8
DEFAULT_255_2_778
10
20.3475004
20
3.8398187
11
19.1558004
21
3.8398187
0
LINE
8
DEFAULT_255_2_778
10
19.1558004
20
3.8398187
11
19.1558004
21
3.8398187
0
LINE
8
DEFAULT_255_2_778
10
24.4068004
20
2.0719187
11
24.4068004
21
-0.2191813
0
LINE
8
DEFAULT_255_2_778
10
24.4068004
20
-0.2191813
11
25.5987004
21
-0.2191813
0
LINE
8
DEFAULT_255_2_778
10
25.5987004
20
-0.2191813
11
25.5987004
21
1.2178187
0
LINE
8
DEFAULT_255_2_778
10
25.5987004
20
1.2178187
11
27.4130004
21
1.2178187
0
LINE
8
DEFAULT_255_2_778
10
27.4130004
20
1.2178187
11
27.4130004
21
2.0719187
0
LINE
8
DEFAULT_255_2_778
10
27.4130004
20
2.0719187
11
24.4068004
21
2.0719187
0
LINE
8
DEFAULT_255_2_778
10
24.4068004
20
3.8398187
11
27.6646004
21
3.8398187
0
LINE
8
DEFAULT_255_2_778
10
27.6646004
20
3.8398187
11
27.6646004
21
2.9193187
0
LINE
8
DEFAULT_255_2_778
10
27.6646004
20
2.9193187
11
24.4068004
21
2.9193187
0
LINE
8
DEFAULT_255_2_778
10
24.4068004
20
2.9193187
11
24.4068004
21
3.8398187
0
LINE
8
DEFAULT_255_2_778
10
28.6245004
20
2.0719187
11
28.6245004
21
-0.2191813
0
LINE
8
DEFAULT_255_2_778
10
28.6245004
20
-0.2191813
11
29.8164004
21
-0.2191813
0
LINE
8
DEFAULT_255_2_778
10
29.8164004
20
-0.2191813
11
29.8164004
21
1.2178187
0
LINE
8
DEFAULT_255_2_778
10
29.8164004
20
1.2178187
11
31.6902004
21
1.2178187
0
LINE
8
DEFAULT_255_2_778
10
31.6902004
20
1.2178187
11
31.6902004
21
2.0719187
0
LINE
8
DEFAULT_255_2_778
10
31.6902004
20
2.0719187
11
28.6245004
21
2.0719187
0
LINE
8
DEFAULT_255_2_778
10
28.6245004
20
3.8398187
11
31.8823004
21
3.8398187
0
LINE
8
DEFAULT_255_2_778
10
31.8823004
20
3.8398187
11
31.8823004
21
2.9193187
0
LINE
8
DEFAULT_255_2_778
10
31.8823004
20
2.9193187
11
28.6245004
21
2.9193187
0
LINE
8
DEFAULT_255_2_778
10
28.6245004
20
2.9193187
11
28.6245004
21
3.8398187
0
ENDSEC
0
EOF