0
SECTION
2
HEADER
9
$MEASUREMENT
70
1
0
ENDSEC
0
SECTION
2
TABLES
0
TABLE
2
LTYPE
0
LTYPE
72
65
70
64
2
CONTINUOUS
3
______
73
0
40
0
0
ENDTAB
0
TABLE
2
LAYER
0
LAYER
2
DEFAULT_255_2_778
70
0
62
255
6
CONTINUOUS
0
ENDTAB
0
ENDSEC
0
SECTION
2
ENTITIES
0
ARC
8
DEFAULT_255_2_778
10
13.4988317
20
-0.2244303
40
0.8951172
50
222.8703565
51
270.0641301
0
ARC
8
DEFAULT_255_2_778
10
13.4965109
20
-0.2233151
40
0.8941781
50
179.9251501
51
223.0239043
0
ARC
8
DEFAULT_255_2_778
10
13.4974086
20
-0.2211403
40
0.8950756
50
132.8679398
51
180.0644374
0
ARC
8
DEFAULT_255_2_778
10
13.4986384
20
-0.2189728
40
0.8943267
50
89.9234309
51
133.0201585
0
ARC
8
DEFAULT_255_2_778
10
13.5008936
20
-0.2192294
40
0.8945831
50
42.8756892
51
90.067891
0
ARC
8
DEFAULT_255_2_778
10
13.5024936
20
-0.220886
40
0.8945408
50
359.9192333
51
43.0231716
0
ARC
8
DEFAULT_255_2_778
10
13.5019355
20
-0.2232032
40
0.8950987
50
312.8825954
51
0.0676089
0
ARC
8
DEFAULT_255_2_778
10
13.5010738
20
-0.2256601
40
0.8938878
50
269.9205022
51
313.0302321
0
ARC
8
DEFAULT_255_2_778
10
13.5455732
20
-0.3358112
40
2.7174973
50
112.8541493
51
123.1900276
0
ARC
8
DEFAULT_255_2_778
10
13.4592127
20
-0.2027618
40
2.5588783
50
123.2026107
51
136.2449351
0
ARC
8
DEFAULT_255_2_778
10
13.4407575
20
-0.1818761
40
2.5311051
50
136.29751
51
155.321094
0
ARC
8
DEFAULT_255_2_778
10
13.5206606
20
-0.2167036
40
2.6182522
50
155.3586397
51
180.0434099
0
ARC
8
DEFAULT_255_2_778
10
13.5398284
20
-0.2186846
40
2.6374194
50
180.0000588
51
180.9928899
0
ARC
8
DEFAULT_255_2_778
10
13.5049387
20
-0.2218731
40
2.602481
50
180.9360124
51
204.3337459
0
ARC
8
DEFAULT_255_2_778
10
13.4613661
20
-0.2384247
40
2.5559608
50
204.3981492
51
218.6466336
0
ARC
8
DEFAULT_255_2_778
10
13.5097131
20
-0.1984511
40
2.6186847
50
218.6690916
51
229.6014643
0
ARC
8
DEFAULT_255_2_778
10
13.5771017
20
-0.1219151
40
2.7206462
50
229.5653024
51
233.3487984
0
LINE
8
DEFAULT_255_2_778
10
13.4998336
20
-1.1195469
11
13.4998336
21
-1.1195469
0
LINE
8
DEFAULT_255_2_778
10
11.9530336
20
-2.3046469
11
9.9507336
21
-2.3046469
0
LINE
8
DEFAULT_255_2_778
10
9.9507336
20
-2.3046469
11
9.9507336
21
0.9878531
0
LINE
8
DEFAULT_255_2_778
10
9.9507336
20
0.9878531
11
8.5825336
21
0.9878531
0
LINE
8
DEFAULT_255_2_778
10
8.5825336
20
0.9878531
11
8.5825336
21
2.1776531
0
LINE
8
DEFAULT_255_2_778
10
8.5825336
20
2.1776531
11
12.4904336
21
2.1683531
0
LINE
8
DEFAULT_255_2_778
10
12.4904336
20
2.1683531
11
12.4901336
21
2.1683531
0
LINE
8
DEFAULT_255_2_778
10
2.2968336
20
-2.3041469
11
2.2968336
21
2.1776531
0
LINE
8
DEFAULT_255_2_778
10
2.2968336
20
2.1776531
11
6.2428336
21
2.1776531
0
LINE
8
DEFAULT_255_2_778
10
6.2428336
20
2.1776531
11
5.8859336
21
0.9878531
0
LINE
8
DEFAULT_255_2_778
10
5.8859336
20
0.9878531
11
3.8234336
21
0.9878531
0
LINE
8
DEFAULT_255_2_778
10
3.8234336
20
0.9878531
11
3.8234336
21
0.5316531
0
LINE
8
DEFAULT_255_2_778
10
3.8234336
20
0.5316531
11
5.7665336
21
0.5316531
0
LINE
8
DEFAULT_255_2_778
10
5.7665336
20
0.5316531
11
5.3699336
21
-0.6581469
0
LINE
8
DEFAULT_255_2_778
10
5.3699336
20
-0.6581469
11
3.8234336
21
-0.6581469
0
LINE
8
DEFAULT_255_2_778
10
3.8234336
20
-0.6581469
11
3.8234336
21
-1.1142469
0
LINE
8
DEFAULT_255_2_778
10
3.8234336
20
-1.1142469
11
5.2511336
21
-1.1142469
0
LINE
8
DEFAULT_255_2_778
10
5.2511336
20
-1.1142469
11
4.8942336
21
-2.3043469
0
LINE
8
DEFAULT_255_2_778
10
4.8942336
20
-2.3043469
11
2.2968336
21
-2.3043469
0
LINE
8
DEFAULT_255_2_778
10
2.2968336
20
-2.3043469
11
2.2968336
21
-2.3041469
0
LINE
8
DEFAULT_255_2_778
10
7.3133336
20
-0.0633469
11
7.7099336
21
1.2455531
0
LINE
8
DEFAULT_255_2_778
10
7.7099336
20
1.2455531
11
8.1065336
21
-0.0633469
0
LINE
8
DEFAULT_255_2_778
10
8.1065336
20
-0.0633469
11
7.3133336
21
-0.0633469
0
LINE
8
DEFAULT_255_2_778
10
7.3133336
20
-0.0633469
11
7.3133336
21
-0.0633469
0
LINE
8
DEFAULT_255_2_778
10
6.9961336
20
-1.1145469
11
8.4039336
21
-1.1145469
0
LINE
8
DEFAULT_255_2_778
10
8.4039336
20
-1.1145469
11
8.7807336
21
-2.3043469
0
LINE
8
DEFAULT_255_2_778
10
8.7807336
20
-2.3043469
11
6.6394336
21
-2.3043469
0
LINE
8
DEFAULT_255_2_778
10
6.6394336
20
-2.3043469
11
6.9961336
21
-1.1145469
0
LINE
8
DEFAULT_255_2_778
10
6.9961336
20
-1.1145469
11
6.9961336
21
-1.1145469
0
LINE
8
DEFAULT_255_2_778
10
14.8679336
20
-2.3043469
11
14.8679336
21
2.1776531
0
LINE
8
DEFAULT_255_2_778
10
14.8679336
20
2.1776531
11
16.9500336
21
2.1776531
0
LINE
8
DEFAULT_255_2_778
10
16.9500336
20
2.1776531
11
17.8818336
21
-0.5787469
0
LINE
8
DEFAULT_255_2_778
10
17.8818336
20
-0.5787469
11
17.8818336
21
2.1776531
0
LINE
8
DEFAULT_255_2_778
10
17.8818336
20
2.1776531
11
19.2301336
21
2.1776531
0
LINE
8
DEFAULT_255_2_778
10
19.2301336
20
2.1776531
11
19.2301336
21
-2.3041469
0
LINE
8
DEFAULT_255_2_778
10
19.2301336
20
-2.3041469
11
17.1084336
21
-2.3041469
0
LINE
8
DEFAULT_255_2_778
10
17.1084336
20
-2.3041469
11
16.2163336
21
0.4324531
0
LINE
8
DEFAULT_255_2_778
10
16.2163336
20
0.4324531
11
16.2163336
21
-2.3041469
0
LINE
8
DEFAULT_255_2_778
10
16.2163336
20
-2.3041469
11
14.8679336
21
-2.3041469
0
LINE
8
DEFAULT_255_2_778
10
14.8679336
20
-2.3041469
11
14.8679336
21
-2.3043469
0
ENDSEC
0
EOF