0
SECTION
2
HEADER
9
$MEASUREMENT
70
1
0
ENDSEC
0
SECTION
2
TABLES
0
TABLE
2
LTYPE
0
LTYPE
72
65
70
64
2
CONTINUOUS
3
______
73
0
40
0
0
ENDTAB
0
TABLE
2
LAYER
0
LAYER
2
DEFAULT_255_2_778
70
0
62
255
6
CONTINUOUS
0
ENDTAB
0
ENDSEC
0
SECTION
2
ENTITIES
0
ARC
8
DEFAULT_255_2_778
10
28.5857703
20
2.8249114
40
2.2414239
50
270.0012134
51
270.7472079
0
ARC
8
DEFAULT_255_2_778
10
28.5731225
20
2.4235335
40
1.8400898
50
256.9524122
51
270.3953035
0
ARC
8
DEFAULT_255_2_778
10
28.4466896
20
1.9165875
40
1.3177171
50
219.9147466
51
257.3315901
0
ARC
8
DEFAULT_255_2_778
10
28.723202
20
2.1198566
40
1.6603687
50
197.9400211
51
219.1722559
0
ARC
8
DEFAULT_255_2_778
10
29.2668253
20
2.3017175
40
2.2335848
50
186.4351731
51
198.0829337
0
ARC
8
DEFAULT_255_2_778
10
30.0560545
20
2.3993521
40
3.0287962
50
179.8489097
51
186.5971674
0
ARC
8
DEFAULT_255_2_778
10
30.552743
20
2.4072683
40
3.5254742
50
179.3432476
51
179.9988494
0
ARC
8
DEFAULT_255_2_778
10
30.1459161
20
2.4596344
40
3.1184386
50
171.5731586
51
180.2196768
0
ARC
8
DEFAULT_255_2_778
10
29.3147673
20
2.5859959
40
2.2777474
50
159.6958067
51
171.6535363
0
ARC
8
DEFAULT_255_2_778
10
28.8035209
20
2.7755882
40
1.7324788
50
143.5587247
51
159.7092655
0
ARC
8
DEFAULT_255_2_778
10
28.3564685
20
3.1037474
40
1.1779152
50
103.4794259
51
143.48306
0
ARC
8
DEFAULT_255_2_778
10
28.5629546
20
2.3858302
40
1.9244782
50
92.7276285
51
104.4754841
0
ARC
8
DEFAULT_255_2_778
10
28.6133107
20
1.6942203
40
2.6177584
50
89.9586391
51
93.1081798
0
ARC
8
DEFAULT_255_2_778
10
28.595557
20
1.7036525
40
2.6083996
50
81.5008975
51
89.5685096
0
ARC
8
DEFAULT_255_2_778
10
28.7460127
20
2.6819831
40
1.618582
50
69.5498888
51
81.6500017
0
ARC
8
DEFAULT_255_2_778
10
28.9705786
20
3.2653541
40
0.9935372
50
47.014426
51
69.9298185
0
ARC
8
DEFAULT_255_2_778
10
29.0783376
20
3.39607
40
0.8245078
50
37.9727024
51
46.2989624
0
ARC
8
DEFAULT_255_2_778
10
27.9291767
20
2.5094333
40
2.2759456
50
15.1684446
51
37.7681999
0
ARC
8
DEFAULT_255_2_778
10
27.5479098
20
2.3868139
40
2.6760784
50
12.255698
51
15.566381
0
ARC
8
DEFAULT_255_2_778
10
29.0985536
20
2.5244202
40
2.8178478
50
8.9227964
51
20.8703956
0
ARC
8
DEFAULT_255_2_778
10
29.6842458
20
2.7586621
40
2.1871576
50
20.6027434
51
54.9407335
0
ARC
8
DEFAULT_255_2_778
10
29.5215649
20
2.5238435
40
2.4728187
50
54.9806207
51
67.3084588
0
ARC
8
DEFAULT_255_2_778
10
29.1729213
20
1.7014449
40
3.3660585
50
67.2335596
51
75.9008597
0
ARC
8
DEFAULT_255_2_778
10
28.871722
20
0.5230882
40
4.5822932
50
75.8373704
51
82.1421111
0
ARC
8
DEFAULT_255_2_778
10
28.6594591
20
-0.9818682
40
6.10214
50
82.0996942
51
86.8568542
0
ARC
8
DEFAULT_255_2_778
10
28.5690552
20
-2.4546434
40
7.5776625
50
86.7849139
51
89.2548647
0
ARC
8
DEFAULT_255_2_778
10
28.6250985
20
-2.4547649
40
7.5772622
50
89.6786185
51
89.999453
0
ARC
8
DEFAULT_255_2_778
10
28.6128623
20
-1.4135799
40
6.5360887
50
89.8921024
51
94.6608361
0
ARC
8
DEFAULT_255_2_778
10
28.4780003
20
0.2072197
40
4.909691
50
94.6291598
51
100.7117941
0
ARC
8
DEFAULT_255_2_778
10
28.2398214
20
1.4499644
40
3.644333
50
100.6639845
51
108.7375765
0
ARC
8
DEFAULT_255_2_778
10
27.9376561
20
2.3315694
40
2.7123889
50
108.6752854
51
119.8916086
0
ARC
8
DEFAULT_255_2_778
10
27.6675507
20
2.8065116
40
2.1660199
50
119.9582495
51
132.9829377
0
ARC
8
DEFAULT_255_2_778
10
27.8165919
20
2.6421547
40
2.3878716
50
132.9103986
51
170.0361608
0
ARC
8
DEFAULT_255_2_778
10
28.5461613
20
2.490241
40
3.1328094
50
169.6084238
51
180.2266946
0
ARC
8
DEFAULT_255_2_778
10
29.0188529
20
2.4778803
40
3.6054764
50
180.0005469
51
180.4751907
0
ARC
8
DEFAULT_255_2_778
10
29.527268
20
2.4624336
40
4.1137929
50
180.2013325
51
187.0268978
0
ARC
8
DEFAULT_255_2_778
10
28.3973491
20
2.319607
40
2.9748906
50
186.9590102
51
196.3798045
0
ARC
8
DEFAULT_255_2_778
10
27.6184643
20
2.0864721
40
2.161877
50
196.2731405
51
210.5886997
0
ARC
8
DEFAULT_255_2_778
10
27.2766104
20
1.889148
40
1.7671868
50
210.7214592
51
239.0816151
0
ARC
8
DEFAULT_255_2_778
10
28.2966225
20
3.5010575
40
3.674442
50
238.3511753
51
252.9529077
0
ARC
8
DEFAULT_255_2_778
10
28.5676303
20
4.3635502
40
4.5784927
50
252.8746372
51
262.1542341
0
ARC
8
DEFAULT_255_2_778
10
28.7358926
20
5.5545122
40
5.7812767
50
262.1134756
51
269.0892983
0
ARC
8
DEFAULT_255_2_778
10
28.7635019
20
6.3267761
40
6.5538998
50
268.9552667
51
269.1615759
0
ARC
8
DEFAULT_255_2_778
10
28.762386
20
6.9975861
40
7.2246298
50
269.2482706
51
269.9972272
0
ARC
8
DEFAULT_255_2_778
10
28.7731034
20
5.9552131
40
6.1822668
50
269.8974335
51
274.628762
0
ARC
8
DEFAULT_255_2_778
10
28.89707
20
4.46152
40
4.6834423
50
274.5917875
51
280.7620335
0
ARC
8
DEFAULT_255_2_778
10
29.1252531
20
3.2802918
40
3.4803836
50
280.7027944
51
289.1458159
0
ARC
8
DEFAULT_255_2_778
10
29.4207275
20
2.4382867
40
2.5880464
50
289.0799403
51
300.9239023
0
ARC
8
DEFAULT_255_2_778
10
29.6255486
20
2.0798814
40
2.1753472
50
301.1472115
51
307.1880583
0
ARC
8
DEFAULT_255_2_778
10
29.5262839
20
2.2440831
40
2.3662444
50
306.6996804
51
344.0961016
0
ARC
8
DEFAULT_255_2_778
10
29.0036311
20
2.4175165
40
2.9165117
50
343.6329567
51
350.7235103
0
ARC
8
DEFAULT_255_2_778
10
27.7779553
20
2.3517556
40
2.4188856
50
340.599833
51
350.3763847
0
ARC
8
DEFAULT_255_2_778
10
28.505374
20
2.0912979
40
1.6462588
50
325.7040344
51
340.7406884
0
ARC
8
DEFAULT_255_2_778
10
28.8082235
20
1.8928928
40
1.2842861
50
283.3082665
51
325.4035206
0
ARC
8
DEFAULT_255_2_778
10
28.6305477
20
2.5257403
40
1.941229
50
271.9702107
51
284.1119699
0
ARC
8
DEFAULT_255_2_778
10
28.5970127
20
3.0413371
40
2.4577248
50
270.4193438
51
272.3382948
0
LINE
8
DEFAULT_255_2_778
10
7.9116004
20
4.9707781
11
7.1805004
21
4.9707781
0
LINE
8
DEFAULT_255_2_778
10
7.1805004
20
4.9707781
11
5.0067004
21
0.0762781
0
LINE
8
DEFAULT_255_2_778
10
5.0067004
20
0.0762781
11
4.9411004
21
-0.0685219
0
LINE
8
DEFAULT_255_2_778
10
4.9411004
20
-0.0685219
11
6.4035004
21
-0.0685219
0
LINE
8
DEFAULT_255_2_778
10
6.4035004
20
-0.0685219
11
6.8313004
21
0.9389781
0
LINE
8
DEFAULT_255_2_778
10
6.8313004
20
0.9389781
11
8.9985004
21
0.9389781
0
LINE
8
DEFAULT_255_2_778
10
8.9985004
20
0.9389781
11
9.4268004
21
-0.0685219
0
LINE
8
DEFAULT_255_2_778
10
9.4268004
20
-0.0685219
11
10.8892004
21
-0.0685219
0
LINE
8
DEFAULT_255_2_778
10
10.8892004
20
-0.0685219
11
8.6429004
21
4.9707781
0
LINE
8
DEFAULT_255_2_778
10
8.6429004
20
4.9707781
11
7.9116004
21
4.9707781
0
LINE
8
DEFAULT_255_2_778
10
7.9116004
20
4.9707781
11
7.9116004
21
4.9707781
0
LINE
8
DEFAULT_255_2_778
10
7.9116004
20
1.7491781
11
7.1805004
21
1.7491781
0
LINE
8
DEFAULT_255_2_778
10
7.1805004
20
1.7491781
11
7.9116004
21
3.4620781
0
LINE
8
DEFAULT_255_2_778
10
7.9116004
20
3.4620781
11
8.6495004
21
1.7491781
0
LINE
8
DEFAULT_255_2_778
10
8.6495004
20
1.7491781
11
7.9116004
21
1.7491781
0
LINE
8
DEFAULT_255_2_778
10
1.5947004
20
3.9626781
11
5.0726004
21
3.9626781
0
LINE
8
DEFAULT_255_2_778
10
5.0726004
20
3.9626781
11
5.0726004
21
4.9707781
0
LINE
8
DEFAULT_255_2_778
10
5.0726004
20
4.9707781
11
0.1323004
21
4.9707781
0
LINE
8
DEFAULT_255_2_778
10
0.1323004
20
4.9707781
11
0.1323004
21
-0.0685219
0
LINE
8
DEFAULT_255_2_778
10
0.1323004
20
-0.0685219
11
1.5947004
21
-0.0685219
0
LINE
8
DEFAULT_255_2_778
10
1.5947004
20
-0.0685219
11
1.5947004
21
2.1510781
0
LINE
8
DEFAULT_255_2_778
10
1.5947004
20
2.1510781
11
4.5657004
21
2.1510781
0
LINE
8
DEFAULT_255_2_778
10
4.5657004
20
2.1510781
11
4.5657004
21
3.1061781
0
LINE
8
DEFAULT_255_2_778
10
4.5657004
20
3.1061781
11
1.5947004
21
3.1061781
0
LINE
8
DEFAULT_255_2_778
10
1.5947004
20
3.1061781
11
1.5947004
21
3.9626781
0
LINE
8
DEFAULT_255_2_778
10
16.1653004
20
1.5451781
11
13.3461004
21
4.9707781
0
LINE
8
DEFAULT_255_2_778
10
13.3461004
20
4.9707781
11
11.9364004
21
4.9707781
0
LINE
8
DEFAULT_255_2_778
10
11.9364004
20
4.9707781
11
11.9364004
21
-0.0685219
0
LINE
8
DEFAULT_255_2_778
10
11.9364004
20
-0.0685219
11
13.3461004
21
-0.0685219
0
LINE
8
DEFAULT_255_2_778
10
13.3461004
20
-0.0685219
11
13.3461004
21
3.1593781
0
LINE
8
DEFAULT_255_2_778
10
13.3461004
20
3.1593781
11
15.9613004
21
-0.0682219
0
LINE
8
DEFAULT_255_2_778
10
15.9613004
20
-0.0682219
11
17.5750004
21
-0.0682219
0
LINE
8
DEFAULT_255_2_778
10
17.5750004
20
-0.0682219
11
17.5750004
21
4.9707781
0
LINE
8
DEFAULT_255_2_778
10
17.5750004
20
4.9707781
11
16.1653004
21
4.9707781
0
LINE
8
DEFAULT_255_2_778
10
16.1653004
20
4.9707781
11
16.1653004
21
1.5451781
0
LINE
8
DEFAULT_255_2_778
10
30.1630004
20
2.9548781
11
31.8823004
21
2.9614781
0
LINE
8
DEFAULT_255_2_778
10
31.8820004
20
1.9473781
11
30.1628004
21
1.9473781
0
ARC
8
DEFAULT_255_2_778
10
21.9533573
20
1.7414508
40
0.9509886
50
338.1327082
51
0.8814296
0
ARC
8
DEFAULT_255_2_778
10
22.058119
20
1.7192458
40
0.8456945
50
304.0331526
51
336.8852016
0
ARC
8
DEFAULT_255_2_778
10
21.8874074
20
1.9322947
40
1.1180147
50
303.3681119
51
305.1726425
0
ARC
8
DEFAULT_255_2_778
10
21.6458334
20
2.3150246
40
1.5705471
50
282.7007474
51
303.048677
0
ARC
8
DEFAULT_255_2_778
10
21.5136932
20
2.8762239
40
2.1470741
50
271.2310215
51
282.848113
0
ARC
8
DEFAULT_255_2_778
10
21.4884822
20
3.3659511
40
2.6372709
50
269.9924228
51
271.5500395
0
ARC
8
DEFAULT_255_2_778
10
21.4492047
20
2.8617164
40
2.1333915
50
270.0020854
51
271.0455528
0
ARC
8
DEFAULT_255_2_778
10
21.4369063
20
2.5767326
40
1.8484489
50
250.4838323
51
270.383621
0
ARC
8
DEFAULT_255_2_778
10
21.4270589
20
2.5226044
40
1.7941624
50
239.3694787
51
250.2027708
0
ARC
8
DEFAULT_255_2_778
10
20.9546246
20
1.7717675
40
0.9077005
50
217.2787844
51
240.8823442
0
ARC
8
DEFAULT_255_2_778
10
20.9051507
20
1.7098442
40
0.8310519
50
183.7979667
51
215.9476271
0
ARC
8
DEFAULT_255_2_778
10
21.2384541
20
1.7547766
40
1.1668216
50
179.9359927
51
184.9154632
0
ARC
8
DEFAULT_255_2_778
10
20.2491365
20
1.6239025
40
1.6399601
50
179.5221349
51
194.8359142
0
ARC
8
DEFAULT_255_2_778
10
19.8499763
20
1.5192108
40
1.2273006
50
194.882788
51
219.7103498
0
ARC
8
DEFAULT_255_2_778
10
20.5219004
20
2.0489005
40
2.0827378
50
219.1102129
51
241.9140443
0
ARC
8
DEFAULT_255_2_778
10
20.7151144
20
2.3702266
40
2.4572643
50
241.4667605
51
243.9666045
0
ARC
8
DEFAULT_255_2_778
10
21.2073924
20
3.4191718
40
3.6158854
50
244.2525563
51
259.2532688
0
ARC
8
DEFAULT_255_2_778
10
21.1734731
20
3.2854482
40
3.4781924
50
259.3914625
51
260.0492077
0
ARC
8
DEFAULT_255_2_778
10
21.6742803
20
6.1143885
40
6.3511175
50
260.0092808
51
264.3829004
0
ARC
8
DEFAULT_255_2_778
10
21.6325662
20
5.7129617
40
5.9475357
50
264.4043069
51
268.6084648
0
ARC
8
DEFAULT_255_2_778
10
21.4756958
20
4.1192888
40
4.3521264
50
270.1637419
51
274.7914722
0
ARC
8
DEFAULT_255_2_778
10
21.3112764
20
6.1369538
40
6.3764759
50
274.7493321
51
278.2020802
0
ARC
8
DEFAULT_255_2_778
10
21.0850221
20
7.7950518
40
8.0499018
50
278.1123107
51
279.0960674
0
ARC
8
DEFAULT_255_2_778
10
21.7133966
20
3.5749712
40
3.7838383
50
279.8029432
51
294.8934113
0
ARC
8
DEFAULT_255_2_778
10
22.3331615
20
2.1797695
40
2.2575224
50
295.5304697
51
319.7915545
0
ARC
8
DEFAULT_255_2_778
10
23.0989065
20
1.5415408
40
1.2607199
50
319.4767723
51
353.7890913
0
ARC
8
DEFAULT_255_2_778
10
22.5452065
20
1.6330341
40
1.8213331
50
352.8121999
51
0.1493028
0
LINE
8
DEFAULT_255_2_778
10
20.0716334
20
1.7560801
11
20.0716334
21
4.9707801
0
LINE
8
DEFAULT_255_2_778
10
20.0716334
20
4.9707801
11
18.6092334
21
4.9707801
0
LINE
8
DEFAULT_255_2_778
10
18.6092334
20
4.9707801
11
18.6092334
21
1.6375801
0
LINE
8
DEFAULT_255_2_778
10
24.3665334
20
1.6377801
11
24.3665334
21
4.9707801
0
LINE
8
DEFAULT_255_2_778
10
24.3665334
20
4.9707801
11
22.9044334
21
4.9707801
0
LINE
8
DEFAULT_255_2_778
10
22.9044334
20
4.9707801
11
22.9044334
21
1.7560801
0
ENDSEC
0
EOF