0
SECTION
2
HEADER
9
$MEASUREMENT
70
1
0
ENDSEC
0
SECTION
2
TABLES
0
TABLE
2
LTYPE
0
LTYPE
72
65
70
64
2
CONTINUOUS
3
______
73
0
40
0
0
ENDTAB
0
TABLE
2
LAYER
0
LAYER
2
DEFAULT_255_2_778
70
0
62
255
6
CONTINUOUS
0
ENDTAB
0
ENDSEC
0
SECTION
2
ENTITIES
0
ARC
8
DEFAULT_255_2_778
10
15.2230281
20
-0.4080371
40
0.6090348
50
180.2941303
51
270.2985195
0
ARC
8
DEFAULT_255_2_778
10
15.2230278
20
1.40391
40
0.6090346
50
89.7014531
51
179.7058812
0
ARC
8
DEFAULT_255_2_778
10
17.269418
20
1.4039528
40
0.6089911
50
0.2901215
51
90.2838194
0
ARC
8
DEFAULT_255_2_778
10
17.2696756
20
-0.4080387
40
0.6087322
50
269.7200476
51
359.7341078
0
ARC
8
DEFAULT_255_2_778
10
1.0464189
20
-0.9154456
40
0.1016191
50
180.2920371
51
270.2719616
0
ARC
8
DEFAULT_255_2_778
10
1.046803
20
1.9109312
40
0.1020057
50
89.7762767
51
179.4915623
0
ARC
8
DEFAULT_255_2_778
10
3.9038838
20
1.9113187
40
0.1016188
50
0.2918931
51
90.2720772
0
ARC
8
DEFAULT_255_2_778
10
3.9038198
20
1.5084187
40
0.1016832
50
269.7641821
51
359.6719159
0
ARC
8
DEFAULT_255_2_778
10
1.8626201
20
1.3051173
40
0.1016208
50
89.6723429
51
179.6509432
0
ARC
8
DEFAULT_255_2_778
10
1.8626409
20
0.902276
40
0.101641
50
180.3041733
51
270.3159003
0
ARC
8
DEFAULT_255_2_778
10
3.7000112
20
0.6991475
40
0.1014907
50
0.2195581
51
90.344304
0
ARC
8
DEFAULT_255_2_778
10
3.700053
20
0.296384
40
0.1014498
50
269.631922
51
359.6907656
0
ARC
8
DEFAULT_255_2_778
10
1.8626201
20
0.0933173
40
0.1016208
50
89.6723429
51
179.6509432
0
ARC
8
DEFAULT_255_2_778
10
1.6595741
20
-0.915638
40
0.1014277
50
269.6199428
51
359.8160588
0
ARC
8
DEFAULT_255_2_778
10
4.3108409
20
1.9112968
40
0.1016411
50
89.6841081
51
179.6958065
0
ARC
8
DEFAULT_255_2_778
10
7.3722548
20
1.9114902
40
0.1014472
50
0.1955431
51
90.2561433
0
ARC
8
DEFAULT_255_2_778
10
7.3721908
20
1.5082469
40
0.1015113
50
269.780116
51
359.7683221
0
ARC
8
DEFAULT_255_2_778
10
5.1267981
20
1.3051391
40
0.1015986
50
89.7162107
51
179.6631335
0
ARC
8
DEFAULT_255_2_778
10
5.1268188
20
0.9022542
40
0.1016189
50
180.2919408
51
270.2720179
0
ARC
8
DEFAULT_255_2_778
10
7.1681889
20
0.6991256
40
0.1015132
50
0.2318961
51
90.3880812
0
ARC
8
DEFAULT_255_2_778
10
7.1682306
20
0.296406
40
0.1014723
50
269.5881749
51
359.6783987
0
ARC
8
DEFAULT_255_2_778
10
5.1267981
20
0.0933391
40
0.1015986
50
89.7162107
51
179.6631335
0
ARC
8
DEFAULT_255_2_778
10
5.1268191
20
-0.3095457
40
0.1016191
50
180.2919801
51
270.2718656
0
ARC
8
DEFAULT_255_2_778
10
7.3724451
20
-0.5124188
40
0.1012573
50
0.2575933
51
90.3642872
0
ARC
8
DEFAULT_255_2_778
10
7.3722548
20
-0.9156175
40
0.1014471
50
269.7438564
51
359.8045134
0
ARC
8
DEFAULT_255_2_778
10
4.3108409
20
-0.915424
40
0.1016412
50
180.3041935
51
270.3158919
0
ARC
8
DEFAULT_255_2_778
10
8.286662
20
0.8038976
40
0.6089684
50
180.2880207
51
270.2765513
0
ARC
8
DEFAULT_255_2_778
10
9.9222195
20
0.0653709
40
0.1295662
50
89.9384236
51
90.1849449
0
ARC
8
DEFAULT_255_2_778
10
9.9224231
20
-0.008747
40
0.2036842
50
0.4454193
51
90.0181082
0
ARC
8
DEFAULT_255_2_778
10
9.9224231
20
-0.2074802
40
0.2036843
50
269.9818918
51
359.5545807
0
ARC
8
DEFAULT_255_2_778
10
9.9222195
20
-0.2815981
40
0.1295663
50
269.8150551
51
270.0615764
0
ARC
8
DEFAULT_255_2_778
10
8.5954319
20
-0.3093312
40
0.101833
50
180.4120671
51
270.2078532
0
ARC
8
DEFAULT_255_2_778
10
8.3922613
20
-0.310403
40
0.1013405
50
0.1918964
51
90.2600991
0
ARC
8
DEFAULT_255_2_778
10
7.7789981
20
-0.3106608
40
0.1015985
50
89.7162104
51
179.6631899
0
ARC
8
DEFAULT_255_2_778
10
8.286384
20
-0.4080807
40
0.6089905
50
180.2900533
51
270.283881
0
ARC
8
DEFAULT_255_2_778
10
10.332746
20
-0.4082092
40
0.6088625
50
269.7040674
51
359.721987
0
ARC
8
DEFAULT_255_2_778
10
10.3327458
20
0.1919818
40
0.6088626
50
0.2780356
51
90.29591
0
ARC
8
DEFAULT_255_2_778
10
8.6963394
20
1.0037744
40
0.2029408
50
180.293056
51
270.2997997
0
ARC
8
DEFAULT_255_2_778
10
8.6963176
20
1.20382
40
0.2029193
50
89.6940011
51
179.6847794
0
ARC
8
DEFAULT_255_2_778
10
10.0239824
20
1.3051173
40
0.1016208
50
0.3490568
51
90.3276571
0
ARC
8
DEFAULT_255_2_778
10
10.2269622
20
1.3059968
40
0.1013613
50
180.1471955
51
270.2481976
0
ARC
8
DEFAULT_255_2_778
10
10.8402821
20
1.3059541
40
0.1013194
50
269.6715701
51
359.8768963
0
ARC
8
DEFAULT_255_2_778
10
10.3327458
20
1.4040819
40
0.6088626
50
0.2780275
51
90.2959134
0
ARC
8
DEFAULT_255_2_778
10
8.2865755
20
1.40376
40
0.609183
50
89.7342214
51
179.6918357
0
ARC
8
DEFAULT_255_2_778
10
11.2474187
20
1.9113187
40
0.1016188
50
89.7279228
51
179.7081069
0
ARC
8
DEFAULT_255_2_778
10
14.3086183
20
1.9115543
40
0.1013835
50
0.1594488
51
90.2922094
0
ARC
8
DEFAULT_255_2_778
10
14.3085545
20
1.5081828
40
0.1014474
50
269.7440312
51
359.8043788
0
ARC
8
DEFAULT_255_2_778
10
13.2873633
20
1.3053751
40
0.1013627
50
89.6959241
51
179.7957875
0
ARC
8
DEFAULT_255_2_778
10
13.0843197
20
-0.9156811
40
0.1016833
50
269.7642502
51
359.6717915
0
ARC
8
DEFAULT_255_2_778
10
12.4711829
20
-0.9156811
40
0.1016833
50
180.3282085
51
270.2357498
0
ARC
8
DEFAULT_255_2_778
10
12.2678837
20
1.3054185
40
0.1016189
50
0.2920174
51
90.2720092
0
ARC
8
DEFAULT_255_2_778
10
11.2474188
20
1.5086541
40
0.1016189
50
180.2919128
51
270.2720293
0
ARC
8
DEFAULT_255_2_778
10
15.6332449
20
-0.2081201
40
0.2030457
50
180.2662262
51
270.2698839
0
ARC
8
DEFAULT_255_2_778
10
15.6329907
20
1.2039482
40
0.2027918
50
89.6579559
51
179.7207848
0
ARC
8
DEFAULT_255_2_778
10
16.8594843
20
1.2038194
40
0.2029199
50
0.3153996
51
90.3058116
0
ARC
8
DEFAULT_255_2_778
10
16.8593576
20
-0.20812
40
0.2030458
50
269.7301302
51
359.7337398
0
LINE
8
DEFAULT_255_2_778
10
14.6140013
20
-0.4111636
11
14.6140013
21
1.4070364
0
LINE
8
DEFAULT_255_2_778
10
15.2262013
20
2.0129364
11
17.2664013
21
2.0129364
0
LINE
8
DEFAULT_255_2_778
10
17.8784013
20
1.4070364
11
17.8784013
21
-0.4108636
0
LINE
8
DEFAULT_255_2_778
10
17.2667013
20
-1.0167636
11
15.2265013
21
-1.0167636
0
LINE
8
DEFAULT_255_2_778
10
15.2265013
20
-1.0167636
11
15.2262013
21
-1.0170636
0
LINE
8
DEFAULT_255_2_778
10
0.9448013
20
-0.9159636
11
0.9448013
21
1.9118364
0
LINE
8
DEFAULT_255_2_778
10
1.0472013
20
2.0129364
11
3.9034013
21
2.0129364
0
LINE
8
DEFAULT_255_2_778
10
4.0055013
20
1.9118364
11
4.0055013
21
1.5078364
0
LINE
8
DEFAULT_255_2_778
10
3.9034013
20
1.4067364
11
1.8632013
21
1.4067364
0
LINE
8
DEFAULT_255_2_778
10
1.7610013
20
1.3057364
11
1.7610013
21
0.9017364
0
LINE
8
DEFAULT_255_2_778
10
1.8632013
20
0.8006364
11
3.6994013
21
0.8006364
0
LINE
8
DEFAULT_255_2_778
10
3.8015013
20
0.6995364
11
3.8015013
21
0.2958364
0
LINE
8
DEFAULT_255_2_778
10
3.6994013
20
0.1949364
11
1.8632013
21
0.1949364
0
LINE
8
DEFAULT_255_2_778
10
1.7610013
20
0.0939364
11
1.7610013
21
-0.9159636
0
LINE
8
DEFAULT_255_2_778
10
1.6589013
20
-1.0170636
11
1.0472013
21
-1.0170636
0
LINE
8
DEFAULT_255_2_778
10
1.0472013
20
-1.0170636
11
1.0469013
21
-1.0170636
0
LINE
8
DEFAULT_255_2_778
10
4.3114013
20
2.0129364
11
7.3718013
21
2.0129364
0
LINE
8
DEFAULT_255_2_778
10
7.4737013
20
1.9118364
11
7.4737013
21
1.5078364
0
LINE
8
DEFAULT_255_2_778
10
7.3718013
20
1.4067364
11
5.1273013
21
1.4067364
0
LINE
8
DEFAULT_255_2_778
10
5.0252013
20
1.3057364
11
5.0252013
21
0.9017364
0
LINE
8
DEFAULT_255_2_778
10
5.1273013
20
0.8006364
11
7.1675013
21
0.8006364
0
LINE
8
DEFAULT_255_2_778
10
7.2697013
20
0.6995364
11
7.2697013
21
0.2958364
0
LINE
8
DEFAULT_255_2_778
10
7.1675013
20
0.1949364
11
5.1273013
21
0.1949364
0
LINE
8
DEFAULT_255_2_778
10
5.0252013
20
0.0939364
11
5.0252013
21
-0.3100636
0
LINE
8
DEFAULT_255_2_778
10
5.1273013
20
-0.4111636
11
7.3718013
21
-0.4111636
0
LINE
8
DEFAULT_255_2_778
10
7.4737013
20
-0.5119636
11
7.4737013
21
-0.9159636
0
LINE
8
DEFAULT_255_2_778
10
7.3718013
20
-1.0170636
11
4.3114013
21
-1.0170636
0
LINE
8
DEFAULT_255_2_778
10
4.2092013
20
-0.9159636
11
4.2092013
21
1.9118364
0
LINE
8
DEFAULT_255_2_778
10
4.2092013
20
1.9118364
11
4.2092013
21
1.9118364
0
LINE
8
DEFAULT_255_2_778
10
8.2896013
20
0.1949364
11
9.9218013
21
0.1949364
0
LINE
8
DEFAULT_255_2_778
10
10.1261013
20
-0.0071636
11
10.1261013
21
-0.2090636
0
LINE
8
DEFAULT_255_2_778
10
9.9218013
20
-0.4111636
11
8.5958013
21
-0.4111636
0
LINE
8
DEFAULT_255_2_778
10
8.3918013
20
-0.2090636
11
7.7795013
21
-0.2090636
0
LINE
8
DEFAULT_255_2_778
10
7.6774013
20
-0.3100636
11
7.6774013
21
-0.4111636
0
LINE
8
DEFAULT_255_2_778
10
8.2894013
20
-1.0170636
11
10.3296013
21
-1.0170636
0
LINE
8
DEFAULT_255_2_778
10
10.9416013
20
-0.4111636
11
10.9416013
21
0.1949364
0
LINE
8
DEFAULT_255_2_778
10
10.3296013
20
0.8008364
11
8.6974013
21
0.8008364
0
LINE
8
DEFAULT_255_2_778
10
8.4934013
20
1.0027364
11
8.4934013
21
1.2049364
0
LINE
8
DEFAULT_255_2_778
10
8.6974013
20
1.4067364
11
10.0234013
21
1.4067364
0
LINE
8
DEFAULT_255_2_778
10
10.2274013
20
1.2046364
11
10.8397013
21
1.2046364
0
LINE
8
DEFAULT_255_2_778
10
10.9416013
20
1.3057364
11
10.9416013
21
1.4070364
0
LINE
8
DEFAULT_255_2_778
10
10.3296013
20
2.0129364
11
8.2894013
21
2.0129364
0
LINE
8
DEFAULT_255_2_778
10
7.6774013
20
1.4070364
11
7.6774013
21
0.8011364
0
LINE
8
DEFAULT_255_2_778
10
7.6774013
20
0.8011364
11
7.6777013
21
0.8008364
0
LINE
8
DEFAULT_255_2_778
10
11.2479013
20
2.0129364
11
14.3081013
21
2.0129364
0
LINE
8
DEFAULT_255_2_778
10
14.4100013
20
1.9118364
11
14.4100013
21
1.5078364
0
LINE
8
DEFAULT_255_2_778
10
14.3081013
20
1.4067364
11
13.2879013
21
1.4067364
0
LINE
8
DEFAULT_255_2_778
10
13.1860013
20
1.3057364
11
13.1860013
21
-0.9162636
0
LINE
8
DEFAULT_255_2_778
10
13.0839013
20
-1.0173636
11
12.4716013
21
-1.0173636
0
LINE
8
DEFAULT_255_2_778
10
12.3695013
20
-0.9162636
11
12.3695013
21
1.3059364
0
LINE
8
DEFAULT_255_2_778
10
12.2674013
20
1.4070364
11
11.2479013
21
1.4070364
0
LINE
8
DEFAULT_255_2_778
10
11.1458013
20
1.5081364
11
11.1458013
21
1.9118364
0
LINE
8
DEFAULT_255_2_778
10
11.1458013
20
1.9118364
11
11.1458013
21
1.9118364
0
LINE
8
DEFAULT_255_2_778
10
15.4302013
20
-0.2090636
11
15.4302013
21
1.2049364
0
LINE
8
DEFAULT_255_2_778
10
15.6342013
20
1.4067364
11
16.8584013
21
1.4067364
0
LINE
8
DEFAULT_255_2_778
10
17.0624013
20
1.2049364
11
17.0624013
21
-0.2090636
0
LINE
8
DEFAULT_255_2_778
10
16.8584013
20
-0.4111636
11
15.6342013
21
-0.4111636
0
ENDSEC
0
EOF