0
SECTION
2
HEADER
9
$MEASUREMENT
70
1
0
ENDSEC
0
SECTION
2
TABLES
0
TABLE
2
LTYPE
0
LTYPE
72
65
70
64
2
CONTINUOUS
3
______
73
0
40
0
0
ENDTAB
0
TABLE
2
LAYER
0
LAYER
2
DEFAULT_255_2_778
70
0
62
255
6
CONTINUOUS
0
ENDTAB
0
ENDSEC
0
SECTION
2
ENTITIES
0
LINE
8
DEFAULT_255_2_778
10
8.0185188
20
6.2250812
11
5.2451188
21
3.4516812
0
LINE
8
DEFAULT_255_2_778
10
5.2451188
20
3.4516812
11
6.6778188
21
4.6346812
0
LINE
8
DEFAULT_255_2_778
10
6.6778188
20
4.6346812
11
6.5069188
21
4.6346812
0
LINE
8
DEFAULT_255_2_778
10
6.5069188
20
4.6346812
11
6.6318188
21
4.7134812
0
LINE
8
DEFAULT_255_2_778
10
6.6318188
20
4.7134812
11
6.7567188
21
4.8121812
0
LINE
8
DEFAULT_255_2_778
10
6.7567188
20
4.8121812
11
6.8093188
21
4.9370812
0
LINE
8
DEFAULT_255_2_778
10
6.8093188
20
4.9370812
11
6.8093188
21
4.7134812
0
LINE
8
DEFAULT_255_2_778
10
6.8093188
20
4.7134812
11
8.0185188
21
6.2250812
0
LINE
8
DEFAULT_255_2_778
10
8.0185188
20
6.2250812
11
5.2451188
21
3.4516812
0
LINE
8
DEFAULT_255_2_778
10
5.2451188
20
3.4516812
11
6.6778188
21
4.6346812
0
LINE
8
DEFAULT_255_2_778
10
6.6778188
20
4.6346812
11
6.5069188
21
4.6346812
0
LINE
8
DEFAULT_255_2_778
10
6.5069188
20
4.6346812
11
6.6318188
21
4.7134812
0
LINE
8
DEFAULT_255_2_778
10
6.6318188
20
4.7134812
11
6.7567188
21
4.8121812
0
LINE
8
DEFAULT_255_2_778
10
6.7567188
20
4.8121812
11
6.8093188
21
4.9370812
0
LINE
8
DEFAULT_255_2_778
10
6.8093188
20
4.9370812
11
6.8093188
21
4.7134812
0
LINE
8
DEFAULT_255_2_778
10
6.8093188
20
4.7134812
11
8.0185188
21
6.2250812
0
LINE
8
DEFAULT_255_2_778
10
8.0185188
20
6.2250812
11
8.0185188
21
6.2250812
0
LINE
8
DEFAULT_255_2_778
10
5.0675188
20
3.6289739
11
6.2766188
21
4.6343739
0
LINE
8
DEFAULT_255_2_778
10
6.2766188
20
4.6343739
11
6.1256188
21
4.6343739
0
LINE
8
DEFAULT_255_2_778
10
6.1256188
20
4.6343739
11
6.2766188
21
4.7330739
0
LINE
8
DEFAULT_255_2_778
10
6.2766188
20
4.7330739
11
6.7563188
21
5.2127739
0
LINE
8
DEFAULT_255_2_778
10
6.7563188
20
5.2127739
11
6.8090188
21
5.3376739
0
LINE
8
DEFAULT_255_2_778
10
6.8090188
20
5.3376739
11
6.8090188
21
5.1140739
0
LINE
8
DEFAULT_255_2_778
10
6.8090188
20
5.1140739
11
7.8409188
21
6.3954739
0
LINE
8
DEFAULT_255_2_778
10
7.8409188
20
6.3954739
11
5.0678188
21
3.6287739
0
LINE
8
DEFAULT_255_2_778
10
5.0675188
20
3.6289739
11
6.2766188
21
4.6343739
0
LINE
8
DEFAULT_255_2_778
10
6.2766188
20
4.6343739
11
6.1256188
21
4.6343739
0
LINE
8
DEFAULT_255_2_778
10
6.1256188
20
4.6343739
11
6.2766188
21
4.7330739
0
LINE
8
DEFAULT_255_2_778
10
6.2766188
20
4.7330739
11
6.7563188
21
5.2127739
0
LINE
8
DEFAULT_255_2_778
10
6.7563188
20
5.2127739
11
6.8090188
21
5.3376739
0
LINE
8
DEFAULT_255_2_778
10
6.8090188
20
5.3376739
11
6.8090188
21
5.1140739
0
LINE
8
DEFAULT_255_2_778
10
6.8090188
20
5.1140739
11
7.8409188
21
6.3954739
0
LINE
8
DEFAULT_255_2_778
10
7.8409188
20
6.3954739
11
5.0678188
21
3.6287739
0
LINE
8
DEFAULT_255_2_778
10
5.0678188
20
3.6287739
11
5.0675188
21
3.6289739
0
LINE
8
DEFAULT_255_2_778
10
4.6928907
20
4.003952
11
5.4683907
21
4.634752
0
LINE
8
DEFAULT_255_2_778
10
5.4683907
20
4.634752
11
5.3699907
21
4.634752
0
LINE
8
DEFAULT_255_2_778
10
5.3699907
20
4.634752
11
5.4487907
21
4.687352
0
LINE
8
DEFAULT_255_2_778
10
5.4487907
20
4.687352
11
6.7565907
21
5.995252
0
LINE
8
DEFAULT_255_2_778
10
6.7565907
20
5.995252
11
6.8092907
21
6.074052
0
LINE
8
DEFAULT_255_2_778
10
6.8092907
20
6.074052
11
6.8092907
21
5.942552
0
LINE
8
DEFAULT_255_2_778
10
6.8092907
20
5.942552
11
7.4336907
21
6.750852
0
LINE
8
DEFAULT_255_2_778
10
7.4336907
20
6.750852
11
4.6933907
21
4.003952
0
LINE
8
DEFAULT_255_2_778
10
4.6928907
20
4.003952
11
5.4683907
21
4.634752
0
LINE
8
DEFAULT_255_2_778
10
5.4683907
20
4.634752
11
5.3699907
21
4.634752
0
LINE
8
DEFAULT_255_2_778
10
5.3699907
20
4.634752
11
5.4487907
21
4.687352
0
LINE
8
DEFAULT_255_2_778
10
5.4487907
20
4.687352
11
6.7565907
21
5.995252
0
LINE
8
DEFAULT_255_2_778
10
6.7565907
20
5.995252
11
6.8092907
21
6.074052
0
LINE
8
DEFAULT_255_2_778
10
6.8092907
20
6.074052
11
6.8092907
21
5.942552
0
LINE
8
DEFAULT_255_2_778
10
6.8092907
20
5.942552
11
7.4336907
21
6.750852
0
LINE
8
DEFAULT_255_2_778
10
7.4336907
20
6.750852
11
4.6933907
21
4.003952
0
LINE
8
DEFAULT_255_2_778
10
4.6933907
20
4.003952
11
4.6928907
21
4.003952
0
LINE
8
DEFAULT_255_2_778
10
4.4892188
20
4.1811812
11
5.0676188
21
4.6346812
0
LINE
8
DEFAULT_255_2_778
10
5.0676188
20
4.6346812
11
4.9953188
21
4.6346812
0
LINE
8
DEFAULT_255_2_778
10
4.9953188
20
4.6346812
11
5.0414188
21
4.6608812
0
LINE
8
DEFAULT_255_2_778
10
5.0414188
20
4.6608812
11
6.7567188
21
6.3761812
0
LINE
8
DEFAULT_255_2_778
10
6.7567188
20
6.3761812
11
6.8289188
21
6.4748812
0
LINE
8
DEFAULT_255_2_778
10
6.8289188
20
6.4748812
11
6.8289188
21
6.3761812
0
LINE
8
DEFAULT_255_2_778
10
6.8289188
20
6.3761812
11
7.2626188
21
6.9545812
0
LINE
8
DEFAULT_255_2_778
10
7.2626188
20
6.9545812
11
4.4892188
21
4.1811812
0
LINE
8
DEFAULT_255_2_778
10
4.4892188
20
4.1811812
11
5.0676188
21
4.6346812
0
LINE
8
DEFAULT_255_2_778
10
5.0676188
20
4.6346812
11
4.9953188
21
4.6346812
0
LINE
8
DEFAULT_255_2_778
10
4.9953188
20
4.6346812
11
5.0414188
21
4.6608812
0
LINE
8
DEFAULT_255_2_778
10
5.0414188
20
4.6608812
11
6.7567188
21
6.3761812
0
LINE
8
DEFAULT_255_2_778
10
6.7567188
20
6.3761812
11
6.8289188
21
6.4748812
0
LINE
8
DEFAULT_255_2_778
10
6.8289188
20
6.4748812
11
6.8289188
21
6.3761812
0
LINE
8
DEFAULT_255_2_778
10
6.8289188
20
6.3761812
11
7.2626188
21
6.9545812
0
LINE
8
DEFAULT_255_2_778
10
7.2626188
20
6.9545812
11
4.4892188
21
4.1811812
0
LINE
8
DEFAULT_255_2_778
10
4.4892188
20
4.1811812
11
4.4892188
21
4.1811812
0
LINE
8
DEFAULT_255_2_778
10
5.4488261
20
3.2479812
11
6.7301261
21
4.3060812
0
LINE
8
DEFAULT_255_2_778
10
6.7301261
20
4.3060812
11
6.8090261
21
4.4835812
0
LINE
8
DEFAULT_255_2_778
10
6.8090261
20
4.4835812
11
6.8090261
21
4.3325812
0
LINE
8
DEFAULT_255_2_778
10
6.8090261
20
4.3325812
11
7.1310261
21
4.6346812
0
LINE
8
DEFAULT_255_2_778
10
7.1310261
20
4.6346812
11
7.0061261
21
4.6346812
0
LINE
8
DEFAULT_255_2_778
10
7.0061261
20
4.6346812
11
7.2098261
21
4.7595812
0
LINE
8
DEFAULT_255_2_778
10
7.2098261
20
4.7595812
11
8.2152261
21
6.0213812
0
LINE
8
DEFAULT_255_2_778
10
8.2152261
20
6.0213812
11
5.4485261
21
3.2479812
0
LINE
8
DEFAULT_255_2_778
10
5.4488261
20
3.2479812
11
6.7301261
21
4.3060812
0
LINE
8
DEFAULT_255_2_778
10
6.7301261
20
4.3060812
11
6.8090261
21
4.4835812
0
LINE
8
DEFAULT_255_2_778
10
6.8090261
20
4.4835812
11
6.8090261
21
4.3325812
0
LINE
8
DEFAULT_255_2_778
10
6.8090261
20
4.3325812
11
7.1310261
21
4.6346812
0
LINE
8
DEFAULT_255_2_778
10
7.1310261
20
4.6346812
11
7.0061261
21
4.6346812
0
LINE
8
DEFAULT_255_2_778
10
7.0061261
20
4.6346812
11
7.2098261
21
4.7595812
0
LINE
8
DEFAULT_255_2_778
10
7.2098261
20
4.7595812
11
8.2152261
21
6.0213812
0
LINE
8
DEFAULT_255_2_778
10
8.2152261
20
6.0213812
11
5.4485261
21
3.2479812
0
LINE
8
DEFAULT_255_2_778
10
5.4485261
20
3.2479812
11
5.4488261
21
3.2479812
0
LINE
8
DEFAULT_255_2_778
10
5.6195188
20
3.0509062
11
6.7564188
21
4.0039062
0
LINE
8
DEFAULT_255_2_778
10
6.7564188
20
4.0039062
11
6.8091188
21
4.1288062
0
LINE
8
DEFAULT_255_2_778
10
6.8091188
20
4.1288062
11
6.8091188
21
3.9777062
0
LINE
8
DEFAULT_255_2_778
10
6.8091188
20
3.9777062
11
7.4597188
21
4.6349062
0
LINE
8
DEFAULT_255_2_778
10
7.4597188
20
4.6349062
11
7.3348188
21
4.6349062
0
LINE
8
DEFAULT_255_2_778
10
7.3348188
20
4.6349062
11
7.5123188
21
4.7336062
0
LINE
8
DEFAULT_255_2_778
10
7.5123188
20
4.7336062
11
8.3929188
21
5.8179062
0
LINE
8
DEFAULT_255_2_778
10
8.3929188
20
5.8179062
11
5.6195188
21
3.0512062
0
LINE
8
DEFAULT_255_2_778
10
5.6195188
20
3.0509062
11
6.7564188
21
4.0039062
0
LINE
8
DEFAULT_255_2_778
10
6.7564188
20
4.0039062
11
6.8091188
21
4.1288062
0
LINE
8
DEFAULT_255_2_778
10
6.8091188
20
4.1288062
11
6.8091188
21
3.9777062
0
LINE
8
DEFAULT_255_2_778
10
6.8091188
20
3.9777062
11
7.4597188
21
4.6349062
0
LINE
8
DEFAULT_255_2_778
10
7.4597188
20
4.6349062
11
7.3348188
21
4.6349062
0
LINE
8
DEFAULT_255_2_778
10
7.3348188
20
4.6349062
11
7.5123188
21
4.7336062
0
LINE
8
DEFAULT_255_2_778
10
7.5123188
20
4.7336062
11
8.3929188
21
5.8179062
0
LINE
8
DEFAULT_255_2_778
10
8.3929188
20
5.8179062
11
5.6195188
21
3.0512062
0
LINE
8
DEFAULT_255_2_778
10
5.6195188
20
3.0512062
11
5.6195188
21
3.0509062
0
LINE
8
DEFAULT_255_2_778
10
5.7970219
20
2.8736739
11
6.7564219
21
3.6557739
0
LINE
8
DEFAULT_255_2_778
10
6.7564219
20
3.6557739
11
6.8090219
21
3.7805739
0
LINE
8
DEFAULT_255_2_778
10
6.8090219
20
3.7805739
11
6.8090219
21
3.6557739
0
LINE
8
DEFAULT_255_2_778
10
6.8090219
20
3.6557739
11
7.7883219
21
4.6349739
0
LINE
8
DEFAULT_255_2_778
10
7.7883219
20
4.6349739
11
7.7160219
21
4.6349739
0
LINE
8
DEFAULT_255_2_778
10
7.7160219
20
4.6349739
11
7.8409219
21
4.7137739
0
LINE
8
DEFAULT_255_2_778
10
7.8409219
20
4.7137739
11
8.5966219
21
5.6403739
0
LINE
8
DEFAULT_255_2_778
10
8.5966219
20
5.6403739
11
5.7970219
21
2.8736739
0
LINE
8
DEFAULT_255_2_778
10
5.7970219
20
2.8736739
11
6.7564219
21
3.6557739
0
LINE
8
DEFAULT_255_2_778
10
6.7564219
20
3.6557739
11
6.8090219
21
3.7805739
0
LINE
8
DEFAULT_255_2_778
10
6.8090219
20
3.7805739
11
6.8090219
21
3.6557739
0
LINE
8
DEFAULT_255_2_778
10
6.8090219
20
3.6557739
11
7.7883219
21
4.6349739
0
LINE
8
DEFAULT_255_2_778
10
7.7883219
20
4.6349739
11
7.7160219
21
4.6349739
0
LINE
8
DEFAULT_255_2_778
10
7.7160219
20
4.6349739
11
7.8409219
21
4.7137739
0
LINE
8
DEFAULT_255_2_778
10
7.8409219
20
4.7137739
11
8.5966219
21
5.6403739
0
LINE
8
DEFAULT_255_2_778
10
8.5966219
20
5.6403739
11
5.7970219
21
2.8736739
0
LINE
8
DEFAULT_255_2_778
10
5.7970219
20
2.8736739
11
5.7970219
21
2.8736739
0
LINE
8
DEFAULT_255_2_778
10
6.0007188
20
2.6958489
11
6.7828188
21
3.3266489
0
LINE
8
DEFAULT_255_2_778
10
6.7828188
20
3.3266489
11
6.8090188
21
3.4253489
0
LINE
8
DEFAULT_255_2_778
10
6.8090188
20
3.4253489
11
6.8090188
21
3.3266489
0
LINE
8
DEFAULT_255_2_778
10
6.8090188
20
3.3266489
11
8.1430188
21
4.6344489
0
LINE
8
DEFAULT_255_2_778
10
8.1430188
20
4.6344489
11
8.0380188
21
4.6344489
0
LINE
8
DEFAULT_255_2_778
10
8.0380188
20
4.6344489
11
8.1695188
21
4.7133489
0
LINE
8
DEFAULT_255_2_778
10
8.1695188
20
4.7133489
11
8.7741188
21
5.4689489
0
LINE
8
DEFAULT_255_2_778
10
8.7741188
20
5.4689489
11
6.0007188
21
2.6958489
0
LINE
8
DEFAULT_255_2_778
10
6.0007188
20
2.6958489
11
6.7828188
21
3.3266489
0
LINE
8
DEFAULT_255_2_778
10
6.7828188
20
3.3266489
11
6.8090188
21
3.4253489
0
LINE
8
DEFAULT_255_2_778
10
6.8090188
20
3.4253489
11
6.8090188
21
3.3266489
0
LINE
8
DEFAULT_255_2_778
10
6.8090188
20
3.3266489
11
8.1430188
21
4.6344489
0
LINE
8
DEFAULT_255_2_778
10
8.1430188
20
4.6344489
11
8.0380188
21
4.6344489
0
LINE
8
DEFAULT_255_2_778
10
8.0380188
20
4.6344489
11
8.1695188
21
4.7133489
0
LINE
8
DEFAULT_255_2_778
10
8.1695188
20
4.7133489
11
8.7741188
21
5.4689489
0
LINE
8
DEFAULT_255_2_778
10
8.7741188
20
5.4689489
11
6.0007188
21
2.6958489
0
LINE
8
DEFAULT_255_2_778
10
6.0007188
20
2.6958489
11
6.0007188
21
2.6958489
0
LINE
8
DEFAULT_255_2_778
10
6.1783261
20
2.4920812
11
6.7828261
21
2.9717812
0
LINE
8
DEFAULT_255_2_778
10
6.7828261
20
2.9717812
11
6.8090261
21
3.0704812
0
LINE
8
DEFAULT_255_2_778
10
6.8090261
20
3.0704812
11
6.8090261
21
2.9717812
0
LINE
8
DEFAULT_255_2_778
10
6.8090261
20
2.9717812
11
8.4717261
21
4.6343812
0
LINE
8
DEFAULT_255_2_778
10
8.4717261
20
4.6343812
11
8.3928261
21
4.6343812
0
LINE
8
DEFAULT_255_2_778
10
8.3928261
20
4.6343812
11
8.5177261
21
4.7132812
0
LINE
8
DEFAULT_255_2_778
10
8.5177261
20
4.7132812
11
8.9447261
21
5.2651812
0
LINE
8
DEFAULT_255_2_778
10
8.9447261
20
5.2651812
11
6.1780261
21
2.4917812
0
LINE
8
DEFAULT_255_2_778
10
6.1783261
20
2.4920812
11
6.7828261
21
2.9717812
0
LINE
8
DEFAULT_255_2_778
10
6.7828261
20
2.9717812
11
6.8090261
21
3.0704812
0
LINE
8
DEFAULT_255_2_778
10
6.8090261
20
3.0704812
11
6.8090261
21
2.9717812
0
LINE
8
DEFAULT_255_2_778
10
6.8090261
20
2.9717812
11
8.4717261
21
4.6343812
0
LINE
8
DEFAULT_255_2_778
10
8.4717261
20
4.6343812
11
8.3928261
21
4.6343812
0
LINE
8
DEFAULT_255_2_778
10
8.3928261
20
4.6343812
11
8.5177261
21
4.7132812
0
LINE
8
DEFAULT_255_2_778
10
8.5177261
20
4.7132812
11
8.9447261
21
5.2651812
0
LINE
8
DEFAULT_255_2_778
10
8.9447261
20
5.2651812
11
6.1780261
21
2.4917812
0
LINE
8
DEFAULT_255_2_778
10
6.1780261
20
2.4917812
11
6.1783261
21
2.4920812
0
LINE
8
DEFAULT_255_2_778
10
6.3753511
20
2.3151489
11
6.7828511
21
2.6437489
0
LINE
8
DEFAULT_255_2_778
10
6.7828511
20
2.6437489
11
6.8090511
21
2.7226489
0
LINE
8
DEFAULT_255_2_778
10
6.8090511
20
2.7226489
11
6.8090511
21
2.6437489
0
LINE
8
DEFAULT_255_2_778
10
6.8090511
20
2.6437489
11
8.7936511
21
4.6350489
0
LINE
8
DEFAULT_255_2_778
10
8.7936511
20
4.6350489
11
8.7476511
21
4.6350489
0
LINE
8
DEFAULT_255_2_778
10
8.7476511
20
4.6350489
11
8.8198511
21
4.6612489
0
LINE
8
DEFAULT_255_2_778
10
8.8198511
20
4.6612489
11
9.1484511
21
5.0882489
0
LINE
8
DEFAULT_255_2_778
10
9.1484511
20
5.0882489
11
6.3753511
21
2.3151489
0
LINE
8
DEFAULT_255_2_778
10
6.3753511
20
2.3151489
11
6.7828511
21
2.6437489
0
LINE
8
DEFAULT_255_2_778
10
6.7828511
20
2.6437489
11
6.8090511
21
2.7226489
0
LINE
8
DEFAULT_255_2_778
10
6.8090511
20
2.7226489
11
6.8090511
21
2.6437489
0
LINE
8
DEFAULT_255_2_778
10
6.8090511
20
2.6437489
11
8.7936511
21
4.6350489
0
LINE
8
DEFAULT_255_2_778
10
8.7936511
20
4.6350489
11
8.7476511
21
4.6350489
0
LINE
8
DEFAULT_255_2_778
10
8.7476511
20
4.6350489
11
8.8198511
21
4.6612489
0
LINE
8
DEFAULT_255_2_778
10
8.8198511
20
4.6612489
11
9.1484511
21
5.0882489
0
LINE
8
DEFAULT_255_2_778
10
9.1484511
20
5.0882489
11
6.3753511
21
2.3151489
0
LINE
8
DEFAULT_255_2_778
10
6.3753511
20
2.3151489
11
6.3753511
21
2.3151489
0
LINE
8
DEFAULT_255_2_778
10
6.5527511
20
2.1177739
11
6.7826511
21
2.3148739
0
LINE
8
DEFAULT_255_2_778
10
6.7826511
20
2.3148739
11
6.8088511
21
2.3674739
0
LINE
8
DEFAULT_255_2_778
10
6.8088511
20
2.3674739
11
6.8088511
21
2.3148739
0
LINE
8
DEFAULT_255_2_778
10
6.8088511
20
2.3148739
11
9.1482511
21
4.6346739
0
LINE
8
DEFAULT_255_2_778
10
9.1482511
20
4.6346739
11
9.0956511
21
4.6346739
0
LINE
8
DEFAULT_255_2_778
10
9.0956511
20
4.6346739
11
9.1482511
21
4.6608739
0
LINE
8
DEFAULT_255_2_778
10
9.1482511
20
4.6608739
11
9.3255511
21
4.8844739
0
LINE
8
DEFAULT_255_2_778
10
9.3255511
20
4.8844739
11
6.5524511
21
2.1177739
0
LINE
8
DEFAULT_255_2_778
10
6.5527511
20
2.1177739
11
6.7826511
21
2.3148739
0
LINE
8
DEFAULT_255_2_778
10
6.7826511
20
2.3148739
11
6.8088511
21
2.3674739
0
LINE
8
DEFAULT_255_2_778
10
6.8088511
20
2.3674739
11
6.8088511
21
2.3148739
0
LINE
8
DEFAULT_255_2_778
10
6.8088511
20
2.3148739
11
9.1482511
21
4.6346739
0
LINE
8
DEFAULT_255_2_778
10
9.1482511
20
4.6346739
11
9.0956511
21
4.6346739
0
LINE
8
DEFAULT_255_2_778
10
9.0956511
20
4.6346739
11
9.1482511
21
4.6608739
0
LINE
8
DEFAULT_255_2_778
10
9.1482511
20
4.6608739
11
9.3255511
21
4.8844739
0
LINE
8
DEFAULT_255_2_778
10
9.3255511
20
4.8844739
11
6.5524511
21
2.1177739
0
LINE
8
DEFAULT_255_2_778
10
6.5524511
20
2.1177739
11
6.5527511
21
2.1177739
0
LINE
8
DEFAULT_255_2_778
10
4.311948
20
4.384952
11
4.640548
21
4.634752
0
LINE
8
DEFAULT_255_2_778
10
4.640548
20
4.634752
11
4.614348
21
4.634752
0
LINE
8
DEFAULT_255_2_778
10
4.614348
20
4.634752
11
6.828948
21
6.849252
0
LINE
8
DEFAULT_255_2_778
10
6.828948
20
6.849252
11
6.828948
21
6.803252
0
LINE
8
DEFAULT_255_2_778
10
6.828948
20
6.803252
11
7.058848
21
7.131852
0
LINE
8
DEFAULT_255_2_778
10
7.058848
20
7.131852
11
4.311948
21
4.384952
0
LINE
8
DEFAULT_255_2_778
10
4.311948
20
4.384952
11
4.640548
21
4.634752
0
LINE
8
DEFAULT_255_2_778
10
4.640548
20
4.634752
11
4.614348
21
4.634752
0
LINE
8
DEFAULT_255_2_778
10
4.614348
20
4.634752
11
6.828948
21
6.849252
0
LINE
8
DEFAULT_255_2_778
10
6.828948
20
6.849252
11
6.828948
21
6.803252
0
LINE
8
DEFAULT_255_2_778
10
6.828948
20
6.803252
11
7.058848
21
7.131852
0
LINE
8
DEFAULT_255_2_778
10
7.058848
20
7.131852
11
4.311948
21
4.384952
0
LINE
8
DEFAULT_255_2_778
10
4.311948
20
4.384952
11
4.311948
21
4.384952
0
LINE
8
DEFAULT_255_2_778
10
4.8638188
20
3.8065739
11
5.8758188
21
4.6343739
0
LINE
8
DEFAULT_255_2_778
10
5.8758188
20
4.6343739
11
5.7509188
21
4.6343739
0
LINE
8
DEFAULT_255_2_778
10
5.7509188
20
4.6343739
11
5.8496188
21
4.7132739
0
LINE
8
DEFAULT_255_2_778
10
5.8496188
20
4.7132739
11
6.7566188
21
5.5937739
0
LINE
8
DEFAULT_255_2_778
10
6.7566188
20
5.5937739
11
6.8289188
21
5.6924739
0
LINE
8
DEFAULT_255_2_778
10
6.8289188
20
5.6924739
11
6.8289188
21
5.5413739
0
LINE
8
DEFAULT_255_2_778
10
6.8289188
20
5.5413739
11
7.6372188
21
6.5732739
0
LINE
8
DEFAULT_255_2_778
10
7.6372188
20
6.5732739
11
4.8638188
21
3.8065739
0
LINE
8
DEFAULT_255_2_778
10
4.8638188
20
3.8065739
11
5.8758188
21
4.6343739
0
LINE
8
DEFAULT_255_2_778
10
5.8758188
20
4.6343739
11
5.7509188
21
4.6343739
0
LINE
8
DEFAULT_255_2_778
10
5.7509188
20
4.6343739
11
5.8496188
21
4.7132739
0
LINE
8
DEFAULT_255_2_778
10
5.8496188
20
4.7132739
11
6.7566188
21
5.5937739
0
LINE
8
DEFAULT_255_2_778
10
6.7566188
20
5.5937739
11
6.8289188
21
5.6924739
0
LINE
8
DEFAULT_255_2_778
10
6.8289188
20
5.6924739
11
6.8289188
21
5.5413739
0
LINE
8
DEFAULT_255_2_778
10
6.8289188
20
5.5413739
11
7.6372188
21
6.5732739
0
LINE
8
DEFAULT_255_2_778
10
7.6372188
20
6.5732739
11
4.8638188
21
3.8065739
0
LINE
8
DEFAULT_255_2_778
10
4.8638188
20
3.8065739
11
4.8638188
21
3.8065739
0
LINE
8
DEFAULT_255_2_778
10
4.2937346
20
2.1054978
11
12.5590346
21
10.3628978
0
LINE
8
DEFAULT_255_2_778
10
12.5590346
20
10.3628978
11
12.5196346
21
10.3628978
0
LINE
8
DEFAULT_255_2_778
10
12.5196346
20
10.3628978
11
4.2741346
21
2.1253978
0
LINE
8
DEFAULT_255_2_778
10
4.2741346
20
2.1253978
11
4.2937346
21
2.1057978
0
LINE
8
DEFAULT_255_2_778
10
4.0965346
20
2.2568978
11
12.2026346
21
10.3628978
0
LINE
8
DEFAULT_255_2_778
10
12.2026346
20
10.3628978
11
12.1632346
21
10.3628978
0
LINE
8
DEFAULT_255_2_778
10
12.1632346
20
10.3628978
11
4.0767346
21
2.2763978
0
LINE
8
DEFAULT_255_2_778
10
4.0767346
20
2.2763978
11
4.0965346
21
2.2568978
0
LINE
8
DEFAULT_255_2_778
10
3.9190346
20
2.4539978
11
11.8279346
21
10.3628978
0
LINE
8
DEFAULT_255_2_778
10
11.8279346
20
10.3628978
11
11.7885346
21
10.3628978
0
LINE
8
DEFAULT_255_2_778
10
11.7885346
20
10.3628978
11
3.8994346
21
2.4735978
0
LINE
8
DEFAULT_255_2_778
10
3.8994346
20
2.4735978
11
3.9190346
21
2.4536978
0
LINE
8
DEFAULT_255_2_778
10
3.7415346
20
2.6838978
11
11.4266346
21
10.3628978
0
LINE
8
DEFAULT_255_2_778
10
11.4266346
20
10.3628978
11
11.3871346
21
10.3628978
0
LINE
8
DEFAULT_255_2_778
10
11.3871346
20
10.3628978
11
3.7219346
21
2.7036978
0
LINE
8
DEFAULT_255_2_778
10
3.7219346
20
2.7036978
11
3.7415346
21
2.6841978
0
LINE
8
DEFAULT_255_2_778
10
3.5377346
20
2.8349978
11
11.0673346
21
10.3628978
0
LINE
8
DEFAULT_255_2_778
10
11.0673346
20
10.3628978
11
11.0278346
21
10.3628978
0
LINE
8
DEFAULT_255_2_778
10
11.0278346
20
10.3628978
11
3.5182346
21
2.8547978
0
LINE
8
DEFAULT_255_2_778
10
3.5182346
20
2.8547978
11
3.5377346
21
2.8351978
0
LINE
8
DEFAULT_255_2_778
10
3.3409346
20
3.0124978
11
10.6910346
21
10.3628978
0
LINE
8
DEFAULT_255_2_778
10
10.6910346
20
10.3628978
11
10.6516346
21
10.3628978
0
LINE
8
DEFAULT_255_2_778
10
10.6516346
20
10.3628978
11
3.3211346
21
3.0323978
0
LINE
8
DEFAULT_255_2_778
10
3.3211346
20
3.0323978
11
3.3409346
21
3.0124978
0
LINE
8
DEFAULT_255_2_778
10
3.1631346
20
3.2095978
11
10.3164346
21
10.3628978
0
LINE
8
DEFAULT_255_2_778
10
10.3164346
20
10.3628978
11
10.2770346
21
10.3628978
0
LINE
8
DEFAULT_255_2_778
10
10.2770346
20
10.3628978
11
3.1435346
21
3.2291978
0
LINE
8
DEFAULT_255_2_778
10
3.1435346
20
3.2291978
11
3.1631346
21
3.2095978
0
LINE
8
DEFAULT_255_2_778
10
2.9599346
20
3.3871978
11
9.9356346
21
10.3628978
0
LINE
8
DEFAULT_255_2_778
10
9.9356346
20
10.3628978
11
9.8962346
21
10.3628978
0
LINE
8
DEFAULT_255_2_778
10
9.8962346
20
10.3628978
11
2.9401346
21
3.4069978
0
LINE
8
DEFAULT_255_2_778
10
2.9401346
20
3.4069978
11
2.9599346
21
3.3871978
0
LINE
8
DEFAULT_255_2_778
10
2.7821346
20
3.5908978
11
9.5597346
21
10.3628978
0
LINE
8
DEFAULT_255_2_778
10
9.5597346
20
10.3628978
11
9.5205346
21
10.3628978
0
LINE
8
DEFAULT_255_2_778
10
9.5205346
20
10.3628978
11
2.7625346
21
3.6104978
0
LINE
8
DEFAULT_255_2_778
10
2.7625346
20
3.6104978
11
2.7821346
21
3.5905978
0
LINE
8
DEFAULT_255_2_778
10
2.6114346
20
3.7681978
11
9.2059346
21
10.3628978
0
LINE
8
DEFAULT_255_2_778
10
9.2059346
20
10.3628978
11
9.1665346
21
10.3628978
0
LINE
8
DEFAULT_255_2_778
10
9.1665346
20
10.3628978
11
2.5916346
21
3.7879978
0
LINE
8
DEFAULT_255_2_778
10
2.5916346
20
3.7879978
11
2.6114346
21
3.7683978
0
LINE
8
DEFAULT_255_2_778
10
2.4074346
20
3.9456978
11
8.8247346
21
10.3628978
0
LINE
8
DEFAULT_255_2_778
10
8.8247346
20
10.3628978
11
8.7852346
21
10.3628978
0
LINE
8
DEFAULT_255_2_778
10
8.7852346
20
10.3628978
11
2.3879346
21
3.9654978
0
LINE
8
DEFAULT_255_2_778
10
2.3879346
20
3.9654978
11
2.4074346
21
3.9456978
0
LINE
8
DEFAULT_255_2_778
10
2.2302346
20
4.1427978
11
8.4503346
21
10.3628978
0
LINE
8
DEFAULT_255_2_778
10
8.4503346
20
10.3628978
11
8.4108346
21
10.3628978
0
LINE
8
DEFAULT_255_2_778
10
8.4108346
20
10.3628978
11
2.2106346
21
4.1626978
0
LINE
8
DEFAULT_255_2_778
10
2.2106346
20
4.1626978
11
2.2302346
21
4.1427978
0
LINE
8
DEFAULT_255_2_778
10
2.0267346
20
4.3200978
11
8.0693346
21
10.3628978
0
LINE
8
DEFAULT_255_2_778
10
8.0693346
20
10.3628978
11
8.0298346
21
10.3628978
0
LINE
8
DEFAULT_255_2_778
10
8.0298346
20
10.3628978
11
2.0069346
21
4.3398978
0
LINE
8
DEFAULT_255_2_778
10
2.0069346
20
4.3398978
11
2.0267346
21
4.3200978
0
LINE
8
DEFAULT_255_2_778
10
1.8558346
20
4.5240978
11
7.6946346
21
10.3628978
0
LINE
8
DEFAULT_255_2_778
10
7.6946346
20
10.3628978
11
7.6552346
21
10.3628978
0
LINE
8
DEFAULT_255_2_778
10
7.6552346
20
10.3628978
11
1.8359346
21
4.5436978
0
LINE
8
DEFAULT_255_2_778
10
1.8359346
20
4.5436978
11
1.8558346
21
4.5237978
0
LINE
8
DEFAULT_255_2_778
10
1.6518346
20
4.7012978
11
7.3181346
21
10.3628978
0
LINE
8
DEFAULT_255_2_778
10
7.3181346
20
10.3628978
11
7.2787346
21
10.3628978
0
LINE
8
DEFAULT_255_2_778
10
7.2787346
20
10.3628978
11
1.6322346
21
4.7211978
0
LINE
8
DEFAULT_255_2_778
10
1.6322346
20
4.7211978
11
1.6518346
21
4.7012978
0
LINE
8
DEFAULT_255_2_778
10
1.4745346
20
4.8722978
11
6.9649346
21
10.3628978
0
LINE
8
DEFAULT_255_2_778
10
6.9649346
20
10.3628978
11
6.9255346
21
10.3628978
0
LINE
8
DEFAULT_255_2_778
10
6.9255346
20
10.3628978
11
1.4547346
21
4.8920978
0
LINE
8
DEFAULT_255_2_778
10
1.4547346
20
4.8920978
11
1.4745346
21
4.8724978
0
LINE
8
DEFAULT_255_2_778
10
1.2705346
20
5.0759978
11
6.5619346
21
10.3628978
0
LINE
8
DEFAULT_255_2_778
10
6.5619346
20
10.3628978
11
6.5225346
21
10.3628978
0
LINE
8
DEFAULT_255_2_778
10
6.5225346
20
10.3628978
11
1.2510346
21
5.0957978
0
LINE
8
DEFAULT_255_2_778
10
1.2510346
20
5.0957978
11
1.2705346
21
5.0762978
0
LINE
8
DEFAULT_255_2_778
10
1.0999346
20
5.2534978
11
6.2095346
21
10.3628978
0
LINE
8
DEFAULT_255_2_778
10
6.2095346
20
10.3628978
11
6.1701346
21
10.3628978
0
LINE
8
DEFAULT_255_2_778
10
6.1701346
20
10.3628978
11
1.0803346
21
5.2730978
0
LINE
8
DEFAULT_255_2_778
10
1.0803346
20
5.2730978
11
1.0999346
21
5.2534978
0
LINE
8
DEFAULT_255_2_778
10
4.4712346
20
1.9020978
11
12.9320346
21
10.3628978
0
LINE
8
DEFAULT_255_2_778
10
12.9320346
20
10.3628978
11
12.8926346
21
10.3628978
0
LINE
8
DEFAULT_255_2_778
10
12.8926346
20
10.3628978
11
4.4514346
21
1.9215978
0
LINE
8
DEFAULT_255_2_778
10
4.4514346
20
1.9215978
11
4.4712346
21
1.9020978
0
LINE
8
DEFAULT_255_2_778
10
4.6485346
20
1.6982978
11
13.3133346
21
10.3628978
0
LINE
8
DEFAULT_255_2_778
10
13.3133346
20
10.3628978
11
13.2739346
21
10.3628978
0
LINE
8
DEFAULT_255_2_778
10
13.2739346
20
10.3628978
11
4.6289346
21
1.7178978
0
LINE
8
DEFAULT_255_2_778
10
4.6289346
20
1.7178978
11
4.6485346
21
1.6982978
0
LINE
8
DEFAULT_255_2_778
10
4.8525346
20
1.5273978
11
13.6880346
21
10.3628978
0
LINE
8
DEFAULT_255_2_778
10
13.6880346
20
10.3628978
11
13.6485346
21
10.3628978
0
LINE
8
DEFAULT_255_2_778
10
13.6485346
20
10.3628978
11
4.8326346
21
1.5469978
0
LINE
8
DEFAULT_255_2_778
10
4.8326346
20
1.5469978
11
4.8525346
21
1.5270978
0
LINE
8
DEFAULT_255_2_778
10
5.0295346
20
1.3236978
11
14.0690346
21
10.3628978
0
LINE
8
DEFAULT_255_2_778
10
14.0690346
20
10.3628978
11
14.0295346
21
10.3628978
0
LINE
8
DEFAULT_255_2_778
10
14.0295346
20
10.3628978
11
5.0099346
21
1.3432978
0
LINE
8
DEFAULT_255_2_778
10
5.0099346
20
1.3432978
11
5.0295346
21
1.3233978
0
LINE
8
DEFAULT_255_2_778
10
5.2266346
20
1.1460978
11
14.4433346
21
10.3628978
0
LINE
8
DEFAULT_255_2_778
10
14.4433346
20
10.3628978
11
14.4039346
21
10.3628978
0
LINE
8
DEFAULT_255_2_778
10
14.4039346
20
10.3628978
11
5.2070346
21
1.1659978
0
LINE
8
DEFAULT_255_2_778
10
5.2070346
20
1.1659978
11
5.2266346
21
1.1460978
0
LINE
8
DEFAULT_255_2_778
10
5.4044346
20
0.9423978
11
14.8246346
21
10.3628978
0
LINE
8
DEFAULT_255_2_778
10
14.8246346
20
10.3628978
11
14.7852346
21
10.3628978
0
LINE
8
DEFAULT_255_2_778
10
14.7852346
20
10.3628978
11
5.3845346
21
0.9622978
0
LINE
8
DEFAULT_255_2_778
10
5.3845346
20
0.9622978
11
5.4044346
21
0.9423978
0
LINE
8
DEFAULT_255_2_778
10
5.5817346
20
0.7714978
11
15.1802346
21
10.3628978
0
LINE
8
DEFAULT_255_2_778
10
15.1802346
20
10.3628978
11
15.1408346
21
10.3628978
0
LINE
8
DEFAULT_255_2_778
10
15.1408346
20
10.3628978
11
5.5621346
21
0.7912978
0
LINE
8
DEFAULT_255_2_778
10
5.5621346
20
0.7912978
11
5.5817346
21
0.7714978
0
LINE
8
DEFAULT_255_2_778
10
5.7854346
20
0.5941978
11
15.5543346
21
10.3628978
0
LINE
8
DEFAULT_255_2_778
10
15.5543346
20
10.3628978
11
15.5149346
21
10.3628978
0
LINE
8
DEFAULT_255_2_778
10
15.5149346
20
10.3628978
11
5.7658346
21
0.6137978
0
LINE
8
DEFAULT_255_2_778
10
5.7658346
20
0.6137978
11
5.7854346
21
0.5939978
0
LINE
8
DEFAULT_255_2_778
10
5.9560346
20
0.3904978
11
15.9287346
21
10.3628978
0
LINE
8
DEFAULT_255_2_778
10
15.9287346
20
10.3628978
11
15.8893346
21
10.3628978
0
LINE
8
DEFAULT_255_2_778
10
15.8893346
20
10.3628978
11
5.9365346
21
0.4100978
0
LINE
8
DEFAULT_255_2_778
10
5.9365346
20
0.4100978
11
5.9560346
21
0.3901978
0
LINE
8
DEFAULT_255_2_778
10
6.1600346
20
0.2129978
11
16.3100346
21
10.3628978
0
LINE
8
DEFAULT_255_2_778
10
16.3100346
20
10.3628978
11
16.2706346
21
10.3628978
0
LINE
8
DEFAULT_255_2_778
10
16.2706346
20
10.3628978
11
6.1405346
21
0.2327978
0
LINE
8
DEFAULT_255_2_778
10
6.1405346
20
0.2327978
11
6.1600346
21
0.2129978
0
LINE
8
DEFAULT_255_2_778
10
6.3376346
20
0.0157978
11
16.6844346
21
10.3628978
0
LINE
8
DEFAULT_255_2_778
10
16.6844346
20
10.3628978
11
16.6449346
21
10.3628978
0
LINE
8
DEFAULT_255_2_778
10
16.6449346
20
10.3628978
11
6.3177346
21
0.0356978
0
LINE
8
DEFAULT_255_2_778
10
6.3177346
20
0.0356978
11
6.3376346
21
0.0160978
0
LINE
8
DEFAULT_255_2_778
10
6.5413346
20
-0.1617022
11
17.0656346
21
10.3628978
0
LINE
8
DEFAULT_255_2_778
10
17.0656346
20
10.3628978
11
17.0262346
21
10.3628978
0
LINE
8
DEFAULT_255_2_778
10
17.0262346
20
10.3628978
11
6.5215346
21
-0.1419022
0
LINE
8
DEFAULT_255_2_778
10
6.5215346
20
-0.1419022
11
6.5413346
21
-0.1617022
0
ARC
8
DEFAULT_255_2_778
10
11.533598
20
1.9945178
40
0.2205875
50
271.82097
51
352.5347373
0
ARC
8
DEFAULT_255_2_778
10
11.1589618
20
2.115885
40
0.612027
50
345.8103975
51
0.5843793
0
ARC
8
DEFAULT_255_2_778
10
10.9750667
20
2.1219991
40
0.7958901
50
0.0092191
51
1.9255451
0
ARC
8
DEFAULT_255_2_778
10
10.9271546
20
2.1762409
40
0.8438011
50
358.1324127
51
359.9880839
0
ARC
8
DEFAULT_255_2_778
10
11.2403054
20
2.190776
40
0.5308541
50
358.4120726
51
21.894517
0
ARC
8
DEFAULT_255_2_778
10
11.5273072
20
2.3103418
40
0.2200022
50
20.8737867
51
86.5340626
0
ARC
8
DEFAULT_255_2_778
10
11.5536052
20
1.9688606
40
0.7659002
50
90.0343681
51
92.9560753
0
ARC
8
DEFAULT_255_2_778
10
11.5633624
20
2.208404
40
0.5264545
50
68.4496579
51
91.1038566
0
ARC
8
DEFAULT_255_2_778
10
11.5678917
20
2.2863139
40
0.4529851
50
11.0248622
51
65.3612773
0
ARC
8
DEFAULT_255_2_778
10
10.9381859
20
2.095385
40
1.1096051
50
2.7561943
51
14.4857344
0
ARC
8
DEFAULT_255_2_778
10
11.6336242
20
2.148598
40
0.4128833
50
359.9401923
51
0.0199359
0
ARC
8
DEFAULT_255_2_778
10
11.3622536
20
2.1241119
40
0.6846764
50
321.387237
51
2.0134168
0
ARC
8
DEFAULT_255_2_778
10
11.5633816
20
1.9907219
40
0.4447857
50
277.6337658
51
318.6441653
0
ARC
8
DEFAULT_255_2_778
10
11.5384335
20
2.1212656
40
0.5775338
50
269.8673386
51
278.3664898
0
ARC
8
DEFAULT_255_2_778
10
11.537205
20
2.197076
40
0.6533427
50
267.9740124
51
269.990469
0
ARC
8
DEFAULT_255_2_778
10
8.7355252
20
2.1375406
40
0.9913826
50
1.4103732
51
18.6495565
0
ARC
8
DEFAULT_255_2_778
10
9.1755651
20
2.2944859
40
0.5243213
50
17.7765132
51
49.8293442
0
ARC
8
DEFAULT_255_2_778
10
9.2703468
20
2.3872597
40
0.3924917
50
51.6660803
51
89.5969933
0
ARC
8
DEFAULT_255_2_778
10
9.2715247
20
2.346553
40
0.4331916
50
89.7906595
51
129.6593768
0
ARC
8
DEFAULT_255_2_778
10
9.3616337
20
2.2717896
40
0.5486854
50
131.9212562
51
165.5799399
0
ARC
8
DEFAULT_255_2_778
10
9.7908851
20
2.139735
40
0.9975201
50
164.3737445
51
179.4711777
0
ARC
8
DEFAULT_255_2_778
10
9.6581607
20
2.1532795
40
0.8647642
50
180.2874068
51
203.5673053
0
ARC
8
DEFAULT_255_2_778
10
9.2765731
20
1.9650127
40
0.4401847
50
200.9638055
51
269.5488979
0
ARC
8
DEFAULT_255_2_778
10
9.2617473
20
1.9364727
40
0.4117878
50
271.5808432
51
338.9691029
0
ARC
8
DEFAULT_255_2_778
10
8.8375357
20
2.1559649
40
0.888072
50
335.5713373
51
357.0772912
0
ARC
8
DEFAULT_255_2_778
10
8.6035511
20
2.1833537
40
1.1232548
50
356.2905793
51
358.9230387
0
ARC
8
DEFAULT_255_2_778
10
9.237114
20
2.3623072
40
0.1940817
50
11.439508
51
87.1075907
0
ARC
8
DEFAULT_255_2_778
10
8.8521245
20
2.2305773
40
0.599874
50
0.5783178
51
16.4849938
0
ARC
8
DEFAULT_255_2_778
10
8.4848642
20
2.2092263
40
0.967492
50
359.9850111
51
1.6232109
0
ARC
8
DEFAULT_255_2_778
10
8.3101932
20
2.2100971
40
1.1421633
50
356.920668
51
359.9436195
0
ARC
8
DEFAULT_255_2_778
10
8.2959415
20
2.1133101
40
1.1553094
50
0.0160771
51
1.7574499
0
ARC
8
DEFAULT_255_2_778
10
8.7587415
20
2.0983161
40
0.6926787
50
343.7247752
51
1.2671596
0
ARC
8
DEFAULT_255_2_778
10
9.2332474
20
1.9413708
40
0.1940104
50
274.0374684
51
348.9518473
0
ARC
8
DEFAULT_255_2_778
10
9.2640857
20
1.9080423
40
0.161119
50
194.9768999
51
263.8795892
0
ARC
8
DEFAULT_255_2_778
10
9.6287605
20
2.0558882
40
0.5537488
50
181.7290947
51
200.0099803
0
ARC
8
DEFAULT_255_2_778
10
9.9802619
20
2.085436
40
0.9061794
50
179.9657903
51
182.9259679
0
ARC
8
DEFAULT_255_2_778
10
10.1248755
20
2.0851642
40
1.0507931
50
176.5312442
51
179.9556801
0
ARC
8
DEFAULT_255_2_778
10
10.3003034
20
2.2182877
40
1.2262696
50
180.0606278
51
183.2511887
0
ARC
8
DEFAULT_255_2_778
10
9.8018904
20
2.2286148
40
0.7279487
50
166.920621
51
180.915002
0
ARC
8
DEFAULT_255_2_778
10
9.343002
20
2.3426975
40
0.2552517
50
136.4305904
51
168.5541316
0
ARC
8
DEFAULT_255_2_778
10
9.2518976
20
2.4203646
40
0.1358686
50
92.104789
51
133.6803772
0
ARC
8
DEFAULT_255_2_778
10
12.0378252
20
2.1248406
40
0.9913826
50
1.4103732
51
18.6495565
0
ARC
8
DEFAULT_255_2_778
10
12.4778651
20
2.2817859
40
0.5243213
50
17.7765132
51
49.8293442
0
ARC
8
DEFAULT_255_2_778
10
12.5726468
20
2.3745597
40
0.3924917
50
51.6660803
51
89.5969933
0
ARC
8
DEFAULT_255_2_778
10
12.5738247
20
2.333853
40
0.4331916
50
89.7906595
51
129.6593768
0
ARC
8
DEFAULT_255_2_778
10
12.6639337
20
2.2590896
40
0.5486854
50
131.9212562
51
165.5799399
0
ARC
8
DEFAULT_255_2_778
10
13.0931851
20
2.127035
40
0.9975201
50
164.3737445
51
179.4711777
0
ARC
8
DEFAULT_255_2_778
10
12.9617376
20
2.1405778
40
0.866041
50
180.2868716
51
203.536954
0
ARC
8
DEFAULT_255_2_778
10
12.5788147
20
1.9519243
40
0.4400958
50
200.9268712
51
269.5564085
0
ARC
8
DEFAULT_255_2_778
10
12.5640473
20
1.9234727
40
0.4117878
50
271.5808432
51
338.9691029
0
ARC
8
DEFAULT_255_2_778
10
12.1398357
20
2.1429649
40
0.888072
50
335.5713373
51
357.0772912
0
ARC
8
DEFAULT_255_2_778
10
11.9058511
20
2.1703537
40
1.1232548
50
356.2905793
51
358.9230387
0
ARC
8
DEFAULT_255_2_778
10
12.5394514
20
2.3497006
40
0.1939866
50
11.4671747
51
87.1172445
0
ARC
8
DEFAULT_255_2_778
10
12.1554633
20
2.2182145
40
0.5987582
50
0.5796312
51
16.4995384
0
ARC
8
DEFAULT_255_2_778
10
11.7890969
20
2.1968945
40
0.9654823
50
359.9849928
51
1.6248946
0
ARC
8
DEFAULT_255_2_778
10
11.613889
20
2.1977835
40
1.1406906
50
356.8972487
51
359.9426432
0
ARC
8
DEFAULT_255_2_778
10
11.5963476
20
2.1005564
40
1.1571042
50
0.0160753
51
1.7573806
0
ARC
8
DEFAULT_255_2_778
10
12.0605566
20
2.0855458
40
0.6930647
50
343.7380509
51
1.2678743
0
ARC
8
DEFAULT_255_2_778
10
12.5355664
20
1.9285707
40
0.1939094
50
274.0339667
51
348.9688065
0
ARC
8
DEFAULT_255_2_778
10
12.5663857
20
1.8953423
40
0.161119
50
194.9768999
51
263.8795892
0
ARC
8
DEFAULT_255_2_778
10
12.9310605
20
2.0431882
40
0.5537488
50
181.7290947
51
200.0099803
0
ARC
8
DEFAULT_255_2_778
10
13.2825619
20
2.072736
40
0.9061794
50
179.9657903
51
182.9259679
0
ARC
8
DEFAULT_255_2_778
10
13.4271755
20
2.0724642
40
1.0507931
50
176.5312442
51
179.9556801
0
ARC
8
DEFAULT_255_2_778
10
13.5988917
20
2.2059071
40
1.2225821
50
180.0611629
51
183.2760006
0
ARC
8
DEFAULT_255_2_778
10
13.1022677
20
2.2161998
40
0.7260501
50
166.8964167
51
180.9152692
0
ARC
8
DEFAULT_255_2_778
10
12.6450493
20
2.3300762
40
0.2550229
50
136.3950746
51
168.5264443
0
ARC
8
DEFAULT_255_2_778
10
12.5542054
20
2.4076082
40
0.1359253
50
92.1072085
51
133.6492711
0
ARC
8
DEFAULT_255_2_778
10
5.0393113
20
2.3807377
40
0.1529066
50
270.6730682
51
359.326978
0
ARC
8
DEFAULT_255_2_778
10
5.0435153
20
2.381251
40
0.1487102
50
359.1102093
51
90.9277224
0
ARC
8
DEFAULT_255_2_778
10
5.1056702
20
2.3956739
40
0.3577746
50
90.0021664
51
91.9481738
0
ARC
8
DEFAULT_255_2_778
10
5.1038703
20
2.4110692
40
0.342384
50
4.8266516
51
89.7010577
0
ARC
8
DEFAULT_255_2_778
10
5.0093438
20
2.3859857
40
0.4390167
50
359.9511243
51
7.0512078
0
ARC
8
DEFAULT_255_2_778
10
4.9868398
20
2.3856226
40
0.4615205
50
359.1333159
51
359.9985923
0
ARC
8
DEFAULT_255_2_778
10
5.1281659
20
2.361414
40
0.3206047
50
0.0024769
51
3.0802668
0
ARC
8
DEFAULT_255_2_778
10
5.1313354
20
2.3616441
40
0.3174352
50
281.0004819
51
359.9609646
0
LINE
8
DEFAULT_255_2_778
10
11.5406075
20
2.5299416
11
11.4459075
21
2.5299416
0
LINE
8
DEFAULT_255_2_778
10
11.4459075
20
2.5299416
11
11.4459075
21
1.7743416
0
LINE
8
DEFAULT_255_2_778
10
11.4459075
20
1.7743416
11
11.5406075
21
1.7743416
0
LINE
8
DEFAULT_255_2_778
10
11.5406075
20
1.7743416
11
11.5406075
21
1.7740416
0
LINE
8
DEFAULT_255_2_778
10
11.5141075
20
1.5441416
11
11.1921075
21
1.5441416
0
LINE
8
DEFAULT_255_2_778
10
11.1921075
20
1.5441416
11
11.1921075
21
2.7337416
0
LINE
8
DEFAULT_255_2_778
10
11.1921075
20
2.7337416
11
11.5141075
21
2.7337416
0
LINE
8
DEFAULT_255_2_778
10
11.5141075
20
1.5441416
11
11.5141075
21
1.5441416
0
LINE
8
DEFAULT_255_2_778
10
9.7266075
20
2.1622416
11
9.7266075
21
2.1619416
0
LINE
8
DEFAULT_255_2_778
10
9.2469075
20
2.5561416
11
9.2469075
21
2.5561416
0
LINE
8
DEFAULT_255_2_778
10
13.0289075
20
2.1492416
11
13.0289075
21
2.1492416
0
LINE
8
DEFAULT_255_2_778
10
12.5492075
20
2.5434416
11
12.5492075
21
2.5434416
0
LINE
8
DEFAULT_255_2_778
10
9.8317075
20
2.7532416
11
10.0814075
21
2.7532416
0
LINE
8
DEFAULT_255_2_778
10
10.0814075
20
2.7532416
11
10.0814075
21
1.8005416
0
LINE
8
DEFAULT_255_2_778
10
10.0814075
20
1.8005416
11
10.3838075
21
1.8005416
0
LINE
8
DEFAULT_255_2_778
10
10.3838075
20
1.8005416
11
10.3838075
21
1.5441416
0
LINE
8
DEFAULT_255_2_778
10
10.3838075
20
1.5441416
11
9.8319075
21
1.5441416
0
LINE
8
DEFAULT_255_2_778
10
9.8319075
20
1.5441416
11
9.8319075
21
2.7532416
0
LINE
8
DEFAULT_255_2_778
10
9.8319075
20
2.7532416
11
9.8317075
21
2.7532416
0
LINE
8
DEFAULT_255_2_778
10
8.1428075
20
2.7532416
11
8.7934075
21
2.7532416
0
LINE
8
DEFAULT_255_2_778
10
8.7934075
20
2.7532416
11
8.7934075
21
2.5035416
0
LINE
8
DEFAULT_255_2_778
10
8.7934075
20
2.5035416
11
8.5963075
21
2.5035416
0
LINE
8
DEFAULT_255_2_778
10
8.5963075
20
2.5035416
11
8.5963075
21
1.5441416
0
LINE
8
DEFAULT_255_2_778
10
8.5963075
20
1.5441416
11
8.3399075
21
1.5441416
0
LINE
8
DEFAULT_255_2_778
10
8.3399075
20
1.5441416
11
8.3399075
21
2.5035416
0
LINE
8
DEFAULT_255_2_778
10
8.3399075
20
2.5035416
11
8.1428075
21
2.5035416
0
LINE
8
DEFAULT_255_2_778
10
8.1428075
20
2.5035416
11
8.1428075
21
2.7532416
0
LINE
8
DEFAULT_255_2_778
10
8.1428075
20
2.7532416
11
8.1428075
21
2.7532416
0
LINE
8
DEFAULT_255_2_778
10
10.4823075
20
2.7532416
11
11.0606075
21
2.7532416
0
LINE
8
DEFAULT_255_2_778
10
11.0606075
20
2.7532416
11
11.0606075
21
2.5299416
0
LINE
8
DEFAULT_255_2_778
10
11.0606075
20
2.5299416
11
10.7387075
21
2.5299416
0
LINE
8
DEFAULT_255_2_778
10
10.7387075
20
2.5299416
11
10.7387075
21
2.3000416
0
LINE
8
DEFAULT_255_2_778
10
10.7387075
20
2.3000416
11
11.0606075
21
2.3000416
0
LINE
8
DEFAULT_255_2_778
10
11.0606075
20
2.3000416
11
11.0606075
21
2.0764416
0
LINE
8
DEFAULT_255_2_778
10
11.0606075
20
2.0764416
11
10.7387075
21
2.0764416
0
LINE
8
DEFAULT_255_2_778
10
10.7387075
20
2.0764416
11
10.7387075
21
1.8005416
0
LINE
8
DEFAULT_255_2_778
10
10.7387075
20
1.8005416
11
11.0606075
21
1.8005416
0
LINE
8
DEFAULT_255_2_778
10
11.0606075
20
1.8005416
11
11.0606075
21
1.5441416
0
LINE
8
DEFAULT_255_2_778
10
11.0606075
20
1.5441416
11
10.4823075
21
1.5441416
0
LINE
8
DEFAULT_255_2_778
10
10.4823075
20
1.5441416
11
10.4823075
21
2.7532416
0
LINE
8
DEFAULT_255_2_778
10
10.4823075
20
2.7532416
11
10.4823075
21
2.7532416
0
LINE
8
DEFAULT_255_2_778
10
1.9458075
20
2.7532416
11
2.5964075
21
2.7532416
0
LINE
8
DEFAULT_255_2_778
10
2.5964075
20
2.7532416
11
2.5964075
21
2.5035416
0
LINE
8
DEFAULT_255_2_778
10
2.5964075
20
2.5035416
11
2.4254075
21
2.5035416
0
LINE
8
DEFAULT_255_2_778
10
2.4254075
20
2.5035416
11
2.4254075
21
1.5441416
0
LINE
8
DEFAULT_255_2_778
10
2.4254075
20
1.5441416
11
2.1431075
21
1.5441416
0
LINE
8
DEFAULT_255_2_778
10
2.1431075
20
1.5441416
11
2.1431075
21
2.5035416
0
LINE
8
DEFAULT_255_2_778
10
2.1431075
20
2.5035416
11
1.9460075
21
2.5035416
0
LINE
8
DEFAULT_255_2_778
10
1.9460075
20
2.5035416
11
1.9460075
21
2.7532416
0
LINE
8
DEFAULT_255_2_778
10
1.9460075
20
2.7532416
11
1.9458075
21
2.7532416
0
LINE
8
DEFAULT_255_2_778
10
3.3785075
20
2.7532416
11
3.6349075
21
2.7532416
0
LINE
8
DEFAULT_255_2_778
10
3.6349075
20
2.7532416
11
3.6349075
21
1.8005416
0
LINE
8
DEFAULT_255_2_778
10
3.6349075
20
1.8005416
11
3.9108075
21
1.8005416
0
LINE
8
DEFAULT_255_2_778
10
3.9108075
20
1.8005416
11
3.9108075
21
1.5441416
0
LINE
8
DEFAULT_255_2_778
10
3.9108075
20
1.5441416
11
3.3787075
21
1.5441416
0
LINE
8
DEFAULT_255_2_778
10
3.3787075
20
1.5441416
11
3.3787075
21
2.7532416
0
LINE
8
DEFAULT_255_2_778
10
3.3787075
20
2.7532416
11
3.3785075
21
2.7532416
0
LINE
8
DEFAULT_255_2_778
10
1.3412075
20
2.7532416
11
1.8931075
21
2.7532416
0
LINE
8
DEFAULT_255_2_778
10
1.8931075
20
2.7532416
11
1.8931075
21
2.5299416
0
LINE
8
DEFAULT_255_2_778
10
1.8931075
20
2.5299416
11
1.5912075
21
2.5299416
0
LINE
8
DEFAULT_255_2_778
10
1.5912075
20
2.5299416
11
1.5912075
21
2.3000416
0
LINE
8
DEFAULT_255_2_778
10
1.5912075
20
2.3000416
11
1.8936075
21
2.3000416
0
LINE
8
DEFAULT_255_2_778
10
1.8936075
20
2.3000416
11
1.8936075
21
2.0764416
0
LINE
8
DEFAULT_255_2_778
10
1.8936075
20
2.0764416
11
1.5912075
21
2.0764416
0
LINE
8
DEFAULT_255_2_778
10
1.5912075
20
2.0764416
11
1.5912075
21
1.8005416
0
LINE
8
DEFAULT_255_2_778
10
1.5912075
20
1.8005416
11
1.8936075
21
1.8005416
0
LINE
8
DEFAULT_255_2_778
10
1.8936075
20
1.8005416
11
1.8936075
21
1.5441416
0
LINE
8
DEFAULT_255_2_778
10
1.8936075
20
1.5441416
11
1.3414075
21
1.5441416
0
LINE
8
DEFAULT_255_2_778
10
1.3414075
20
1.5441416
11
1.3414075
21
2.7532416
0
LINE
8
DEFAULT_255_2_778
10
1.3414075
20
2.7532416
11
1.3412075
21
2.7532416
0
LINE
8
DEFAULT_255_2_778
10
0.6840075
20
1.9976416
11
0.8615075
21
2.7532416
0
LINE
8
DEFAULT_255_2_778
10
0.8615075
20
2.7532416
11
1.2163075
21
2.7532416
0
LINE
8
DEFAULT_255_2_778
10
1.2163075
20
2.7532416
11
1.2163075
21
1.5441416
0
LINE
8
DEFAULT_255_2_778
10
1.2163075
20
1.5441416
11
0.9599075
21
1.5441416
0
LINE
8
DEFAULT_255_2_778
10
0.9599075
20
1.5441416
11
0.9599075
21
2.4312416
0
LINE
8
DEFAULT_255_2_778
10
0.9599075
20
2.4312416
11
0.7824075
21
1.5441416
0
LINE
8
DEFAULT_255_2_778
10
0.7824075
20
1.5441416
11
0.5853075
21
1.5441416
0
LINE
8
DEFAULT_255_2_778
10
0.5853075
20
1.5441416
11
0.3815075
21
2.4312416
0
LINE
8
DEFAULT_255_2_778
10
0.3815075
20
2.4312416
11
0.3815075
21
1.5441416
0
LINE
8
DEFAULT_255_2_778
10
0.3815075
20
1.5441416
11
0.1323075
21
1.5441416
0
LINE
8
DEFAULT_255_2_778
10
0.1323075
20
1.5441416
11
0.1323075
21
2.7532416
0
LINE
8
DEFAULT_255_2_778
10
0.1323075
20
2.7532416
11
0.5069075
21
2.7532416
0
LINE
8
DEFAULT_255_2_778
10
0.5069075
20
2.7532416
11
0.6845075
21
1.9976416
0
LINE
8
DEFAULT_255_2_778
10
0.6845075
20
1.9976416
11
0.6840075
21
1.9976416
0
LINE
8
DEFAULT_255_2_778
10
2.6490075
20
2.7532416
11
3.3062075
21
2.7532416
0
LINE
8
DEFAULT_255_2_778
10
3.3062075
20
2.7532416
11
3.3062075
21
2.5035416
0
LINE
8
DEFAULT_255_2_778
10
3.3062075
20
2.5035416
11
3.1025075
21
2.5035416
0
LINE
8
DEFAULT_255_2_778
10
3.1025075
20
2.5035416
11
3.1025075
21
1.5441416
0
LINE
8
DEFAULT_255_2_778
10
3.1025075
20
1.5441416
11
2.8527075
21
1.5441416
0
LINE
8
DEFAULT_255_2_778
10
2.8527075
20
1.5441416
11
2.8527075
21
2.5035416
0
LINE
8
DEFAULT_255_2_778
10
2.8527075
20
2.5035416
11
2.6490075
21
2.5035416
0
LINE
8
DEFAULT_255_2_778
10
2.6490075
20
2.5035416
11
2.6490075
21
2.7532416
0
LINE
8
DEFAULT_255_2_778
10
2.6490075
20
2.7532416
11
2.6490075
21
2.7532416
0
LINE
8
DEFAULT_255_2_778
10
3.9830075
20
2.7532416
11
4.5614075
21
2.7532416
0
LINE
8
DEFAULT_255_2_778
10
4.5614075
20
2.7532416
11
4.5614075
21
2.5299416
0
LINE
8
DEFAULT_255_2_778
10
4.5614075
20
2.5299416
11
4.2394075
21
2.5299416
0
LINE
8
DEFAULT_255_2_778
10
4.2394075
20
2.5299416
11
4.2394075
21
2.3000416
0
LINE
8
DEFAULT_255_2_778
10
4.2394075
20
2.3000416
11
4.5614075
21
2.3000416
0
LINE
8
DEFAULT_255_2_778
10
4.5614075
20
2.3000416
11
4.5614075
21
2.0764416
0
LINE
8
DEFAULT_255_2_778
10
4.5614075
20
2.0764416
11
4.2394075
21
2.0764416
0
LINE
8
DEFAULT_255_2_778
10
4.2394075
20
2.0764416
11
4.2394075
21
1.8005416
0
LINE
8
DEFAULT_255_2_778
10
4.2394075
20
1.8005416
11
4.5614075
21
1.8005416
0
LINE
8
DEFAULT_255_2_778
10
4.5614075
20
1.8005416
11
4.5614075
21
1.5441416
0
LINE
8
DEFAULT_255_2_778
10
4.5614075
20
1.5441416
11
3.9830075
21
1.5441416
0
LINE
8
DEFAULT_255_2_778
10
3.9830075
20
1.5441416
11
3.9830075
21
2.7532416
0
LINE
8
DEFAULT_255_2_778
10
3.9830075
20
2.7532416
11
3.9830075
21
2.7532416
0
LINE
8
DEFAULT_255_2_778
10
5.0411075
20
2.5299416
11
4.9424075
21
2.5299416
0
LINE
8
DEFAULT_255_2_778
10
4.9424075
20
2.5299416
11
4.9424075
21
2.2267416
0
LINE
8
DEFAULT_255_2_778
10
4.9424075
20
2.2267416
11
5.0411075
21
2.2278416
0
LINE
8
DEFAULT_255_2_778
10
5.0411075
20
2.5299416
11
5.0411075
21
2.5299416
0
LINE
8
DEFAULT_255_2_778
10
4.9424075
20
2.0079416
11
4.9424075
21
1.5441416
0
LINE
8
DEFAULT_255_2_778
10
4.9424075
20
1.5441416
11
4.6665075
21
1.5441416
0
LINE
8
DEFAULT_255_2_778
10
4.6665075
20
1.5441416
11
4.6665075
21
2.7532416
0
LINE
8
DEFAULT_255_2_778
10
4.6665075
20
2.7532416
11
5.0935075
21
2.7532416
0
LINE
8
DEFAULT_255_2_778
10
5.1919075
20
2.0500416
11
5.4943075
21
1.5441416
0
LINE
8
DEFAULT_255_2_778
10
5.4943075
20
1.5441416
11
5.2184075
21
1.5441416
0
LINE
8
DEFAULT_255_2_778
10
5.2184075
20
1.5441416
11
4.9464075
21
2.0079416
0
LINE
8
DEFAULT_255_2_778
10
4.9464075
20
2.0079416
11
4.9424075
21
2.0079416
0
ENDSEC
0
EOF