0
SECTION
2
HEADER
9
$MEASUREMENT
70
1
0
ENDSEC
0
SECTION
2
TABLES
0
TABLE
2
LTYPE
0
LTYPE
72
65
70
64
2
CONTINUOUS
3
______
73
0
40
0
0
ENDTAB
0
TABLE
2
LAYER
0
LAYER
2
DEFAULT_255_2_778
70
0
62
255
6
CONTINUOUS
0
ENDTAB
0
ENDSEC
0
SECTION
2
ENTITIES
0
ARC
8
DEFAULT_255_2_778
10
11.6547898
20
1.8308824
40
1.1128947
50
179.3940436
51
194.5656772
0
ARC
8
DEFAULT_255_2_778
10
11.228588
20
1.7137593
40
0.6709642
50
194.0385016
51
223.4796183
0
ARC
8
DEFAULT_255_2_778
10
11.1820055
20
1.6947315
40
0.6243367
50
225.1543349
51
261.26859
0
ARC
8
DEFAULT_255_2_778
10
11.2461679
20
1.993658
40
0.9297138
50
260.1567022
51
270.2335312
0
ARC
8
DEFAULT_255_2_778
10
11.2508224
20
2.3719466
40
1.3079949
50
269.9621054
51
288.5733991
0
ARC
8
DEFAULT_255_2_778
10
11.1477261
20
2.6553704
40
1.6095123
50
288.8386335
51
302.0554104
0
ARC
8
DEFAULT_255_2_778
10
11.0625949
20
3.1639296
40
1.7176091
50
294.5217993
51
303.1546793
0
ARC
8
DEFAULT_255_2_778
10
11.0476895
20
3.172637
40
1.7317461
50
287.1222989
51
294.8509037
0
ARC
8
DEFAULT_255_2_778
10
11.2728624
20
2.430717
40
0.9564209
50
279.0144187
51
287.3162443
0
ARC
8
DEFAULT_255_2_778
10
11.3581594
20
1.9021889
40
0.4210586
50
270.5848478
51
278.8195386
0
ARC
8
DEFAULT_255_2_778
10
11.3607473
20
1.9389857
40
0.4578369
50
264.5834025
51
270.2139953
0
ARC
8
DEFAULT_255_2_778
10
11.3262636
20
1.6976784
40
0.2146631
50
212.472392
51
267.6680048
0
ARC
8
DEFAULT_255_2_778
10
11.4420127
20
1.7598814
40
0.3458463
50
189.4972263
51
210.8706198
0
ARC
8
DEFAULT_255_2_778
10
11.833846
20
1.834812
40
0.74473
50
179.396813
51
190.2089778
0
LINE
8
DEFAULT_255_2_778
10
10.1670573
20
3.709252
11
10.1670573
21
3.270552
0
LINE
8
DEFAULT_255_2_778
10
10.1670573
20
3.270552
11
10.5419573
21
3.270552
0
LINE
8
DEFAULT_255_2_778
10
10.5419573
20
3.270552
11
10.5419573
21
1.842652
0
LINE
8
DEFAULT_255_2_778
10
12.0019573
20
1.291252
11
12.0019573
21
1.725952
0
LINE
8
DEFAULT_255_2_778
10
11.0891573
20
1.842652
11
11.0891573
21
3.709252
0
LINE
8
DEFAULT_255_2_778
10
11.0891573
20
3.709252
11
10.1670573
21
3.709252
0
ARC
8
DEFAULT_255_2_778
10
3.4812666
20
2.6849438
40
1.6113488
50
252.9186285
51
257.6107705
0
ARC
8
DEFAULT_255_2_778
10
3.6218531
20
3.2930605
40
2.2354777
50
257.4354569
51
261.2721678
0
ARC
8
DEFAULT_255_2_778
10
3.5461117
20
2.7468736
40
1.6841416
50
260.9995039
51
267.3325195
0
ARC
8
DEFAULT_255_2_778
10
3.5070699
20
2.0517785
40
0.9880049
50
267.7181744
51
269.9475748
0
ARC
8
DEFAULT_255_2_778
10
3.5154986
20
2.4299332
40
1.3661912
50
269.6085981
51
289.9945869
0
ARC
8
DEFAULT_255_2_778
10
3.5600476
20
2.2801532
40
1.2102425
50
290.4372748
51
342.3469043
0
ARC
8
DEFAULT_255_2_778
10
3.2209973
20
2.4077816
40
1.5721431
50
341.6617215
51
359.1159926
0
ARC
8
DEFAULT_255_2_778
10
2.998595
20
2.421999
40
1.7947707
50
358.7717092
51
0.0023897
0
ARC
8
DEFAULT_255_2_778
10
3.0568822
20
2.4307369
40
1.7365052
50
359.7141627
51
10.7812357
0
ARC
8
DEFAULT_255_2_778
10
3.4826123
20
2.5134191
40
1.3028244
50
10.7114962
51
26.5395739
0
ARC
8
DEFAULT_255_2_778
10
3.6478558
20
2.5918085
40
1.1199738
50
26.7290742
51
54.0899885
0
ARC
8
DEFAULT_255_2_778
10
3.4464696
20
2.2555089
40
1.5108574
50
55.3845436
51
87.6162284
0
ARC
8
DEFAULT_255_2_778
10
3.3879791
20
1.837594
40
1.9312799
50
86.3980689
51
90.0092935
0
ARC
8
DEFAULT_255_2_778
10
3.3927256
20
1.5685887
40
2.200291
50
90.1317549
51
97.8026439
0
ARC
8
DEFAULT_255_2_778
10
3.4348346
20
1.2360756
40
2.5354446
50
97.7252861
51
102.136642
0
ARC
8
DEFAULT_255_2_778
10
3.4671527
20
1.0813466
40
2.6935103
50
102.1167524
51
105.6463534
0
ARC
8
DEFAULT_255_2_778
10
3.4871153
20
1.0094038
40
2.768171
50
105.6426264
51
105.7439429
0
ARC
8
DEFAULT_255_2_778
10
3.4548223
20
1.1224769
40
2.6505777
50
105.7352871
51
108.3149296
0
ARC
8
DEFAULT_255_2_778
10
3.3687099
20
1.381077
40
2.3780175
50
108.3031779
51
110.3966688
0
ARC
8
DEFAULT_255_2_778
10
3.1982085
20
1.8392824
40
1.8891177
50
110.3930673
51
111.9219441
0
ARC
8
DEFAULT_255_2_778
10
2.9348698
20
2.4915958
40
1.1856555
50
111.8851781
51
113.2978602
0
ARC
8
DEFAULT_255_2_778
10
2.6252307
20
3.2109318
40
0.4025076
50
113.314088
51
114.0234177
0
ARC
8
DEFAULT_255_2_778
10
3.3762815
20
2.3422048
40
0.9978379
50
71.4857201
51
90.6727248
0
ARC
8
DEFAULT_255_2_778
10
3.4521025
20
2.587099
40
0.7415653
50
14.565989
51
71.0324045
0
ARC
8
DEFAULT_255_2_778
10
3.0009775
20
2.4385661
40
1.2159234
50
0.3588721
51
15.9940599
0
ARC
8
DEFAULT_255_2_778
10
2.6864603
20
2.4221419
40
1.5306055
50
359.9974558
51
0.8999404
0
ARC
8
DEFAULT_255_2_778
10
2.9506573
20
2.4119992
40
1.2664487
50
344.262082
51
0.4557984
0
ARC
8
DEFAULT_255_2_778
10
3.3291379
20
2.3004474
40
0.8719121
50
319.5641294
51
344.5717138
0
ARC
8
DEFAULT_255_2_778
10
3.4723782
20
2.1881685
40
0.6901038
50
268.9759184
51
318.9459024
0
ARC
8
DEFAULT_255_2_778
10
3.4590854
20
2.0087984
40
0.5106244
50
269.9641454
51
270.1075865
0
ARC
8
DEFAULT_255_2_778
10
3.4752878
20
2.695552
40
1.1974921
50
247.9592649
51
269.2094599
0
ARC
8
DEFAULT_255_2_778
10
3.5871388
20
3.0306292
40
1.5502118
50
248.0616412
51
248.7748646
0
ARC
8
DEFAULT_255_2_778
10
3.3595074
20
2.0946801
40
1.2448616
50
94.3143512
51
106.4031434
0
ARC
8
DEFAULT_255_2_778
10
3.3660748
20
2.0701182
40
1.2698567
50
90.0680831
51
94.5264613
0
ARC
8
DEFAULT_255_2_778
10
6.7959527
20
2.4190395
40
1.6822105
50
179.6956934
51
199.2054332
0
ARC
8
DEFAULT_255_2_778
10
6.4109017
20
2.2766064
40
1.2717594
50
198.8521738
51
225.5094165
0
ARC
8
DEFAULT_255_2_778
10
6.2478662
20
2.1357054
40
1.0571375
50
226.4615153
51
262.0518814
0
ARC
8
DEFAULT_255_2_778
10
6.4075783
20
3.0095367
40
1.9450176
50
260.9516389
51
270.4297217
0
ARC
8
DEFAULT_255_2_778
10
6.4194501
20
2.6782758
40
1.6137042
50
270.096425
51
279.6753387
0
ARC
8
DEFAULT_255_2_778
10
6.3903471
20
2.8563701
40
1.7941568
50
279.6356631
51
286.4711938
0
ARC
8
DEFAULT_255_2_778
10
6.3619637
20
2.9560276
40
1.8977724
50
286.4398689
51
291.3769452
0
LINE
8
DEFAULT_255_2_778
10
7.0537057
20
1.1888172
11
7.0539784
21
1.1889239
0
ARC
8
DEFAULT_255_2_778
10
6.3722104
20
2.9315053
40
1.8712022
50
291.3674366
51
294.9247941
0
ARC
8
DEFAULT_255_2_778
10
6.448709
20
2.7679851
40
1.6906734
50
294.90915
51
297.7824472
0
ARC
8
DEFAULT_255_2_778
10
6.6052969
20
2.471023
40
1.3549558
50
297.7774418
51
299.8632583
0
ARC
8
DEFAULT_255_2_778
10
6.8537741
20
2.0397525
40
0.8572268
50
299.8137838
51
301.7311725
0
ARC
8
DEFAULT_255_2_778
10
7.150598
20
1.5595425
40
0.2926864
50
301.7513119
51
302.7109166
0
ARC
8
DEFAULT_255_2_778
10
6.9104941
20
2.4368993
40
0.8188124
50
298.235441
51
299.1043451
0
ARC
8
DEFAULT_255_2_778
10
6.4251919
20
3.3378076
40
1.8421175
50
297.0695167
51
298.2771386
0
ARC
8
DEFAULT_255_2_778
10
6.1393274
20
3.8956794
40
2.468966
50
295.4600166
51
297.0852532
0
ARC
8
DEFAULT_255_2_778
10
6.0605339
20
4.0592213
40
2.6504977
50
293.0462049
51
295.4781306
0
ARC
8
DEFAULT_255_2_778
10
6.1072811
20
3.9497888
40
2.5314989
50
291.9001
51
293.0422133
0
ARC
8
DEFAULT_255_2_778
10
6.2288615
20
3.6391761
40
2.1979554
50
287.5681861
51
291.9795687
0
ARC
8
DEFAULT_255_2_778
10
6.4158058
20
3.0401416
40
1.5704355
50
281.1430413
51
287.6626073
0
ARC
8
DEFAULT_255_2_778
10
6.525795
20
2.4703199
40
0.9901023
50
271.7110542
51
281.2707883
0
ARC
8
DEFAULT_255_2_778
10
6.538796
20
2.2227601
40
0.7422861
50
270.0053909
51
271.2785437
0
ARC
8
DEFAULT_255_2_778
10
6.5167137
20
2.5351707
40
1.0549295
50
252.7187374
51
271.2032281
0
ARC
8
DEFAULT_255_2_778
10
6.4028115
20
2.1391184
40
0.6429812
50
228.7264417
51
251.9263497
0
ARC
8
DEFAULT_255_2_778
10
6.5433971
20
2.2848203
40
0.8452781
50
195.9736239
51
228.07932
0
ARC
8
DEFAULT_255_2_778
10
6.794014
20
2.3706645
40
1.109925
50
185.2049397
51
196.6736864
0
ARC
8
DEFAULT_255_2_778
10
5.6598064
20
2.4442119
40
1.8111884
50
359.676126
51
13.08873
0
ARC
8
DEFAULT_255_2_778
10
6.1172765
20
2.5540827
40
1.3407262
50
12.9426664
51
32.1625539
0
ARC
8
DEFAULT_255_2_778
10
6.3488862
20
2.6974328
40
1.0683521
50
32.2665662
51
84.924598
0
ARC
8
DEFAULT_255_2_778
10
6.3024438
20
2.4369604
40
1.3321142
50
83.9259519
51
90.0506665
0
ARC
8
DEFAULT_255_2_778
10
6.2934443
20
2.5563427
40
1.2127564
50
89.6304744
51
106.5992531
0
ARC
8
DEFAULT_255_2_778
10
6.2552107
20
2.7029333
40
1.0613653
50
106.8819706
51
138.8734551
0
ARC
8
DEFAULT_255_2_778
10
6.5686559
20
2.467017
40
1.4529172
50
139.9956296
51
176.4705001
0
ARC
8
DEFAULT_255_2_778
10
6.7567631
20
2.4280007
40
1.6432974
50
175.5164435
51
179.9939612
0
ARC
8
DEFAULT_255_2_778
10
6.2478792
20
2.1366469
40
1.0578907
50
226.476888
51
262.0428664
0
ARC
8
DEFAULT_255_2_778
10
6.4073207
20
3.0082637
40
1.9435442
50
260.9447693
51
270.4287961
0
ARC
8
DEFAULT_255_2_778
10
6.4191501
20
2.6784758
40
1.6137042
50
270.096425
51
279.6753387
0
ARC
8
DEFAULT_255_2_778
10
6.3900471
20
2.8565701
40
1.7941568
50
279.6356631
51
286.4711938
0
ARC
8
DEFAULT_255_2_778
10
6.3616637
20
2.9562276
40
1.8977724
50
286.4398689
51
291.3769452
0
LINE
8
DEFAULT_255_2_778
10
7.0534057
20
1.1890172
11
7.0536784
21
1.1891239
0
ARC
8
DEFAULT_255_2_778
10
6.3719104
20
2.9317053
40
1.8712022
50
291.3674366
51
294.9247941
0
ARC
8
DEFAULT_255_2_778
10
6.448409
20
2.7681851
40
1.6906734
50
294.90915
51
297.7824472
0
ARC
8
DEFAULT_255_2_778
10
6.6049969
20
2.471223
40
1.3549558
50
297.7774418
51
299.8632583
0
ARC
8
DEFAULT_255_2_778
10
6.8534741
20
2.0399525
40
0.8572268
50
299.8137838
51
301.7311725
0
ARC
8
DEFAULT_255_2_778
10
7.150298
20
1.5597425
40
0.2926864
50
301.7513119
51
302.7109166
0
ARC
8
DEFAULT_255_2_778
10
6.9101941
20
2.4371993
40
0.8188124
50
298.235441
51
299.1043451
0
ARC
8
DEFAULT_255_2_778
10
6.4248919
20
3.3381076
40
1.8421175
50
297.0695167
51
298.2771386
0
ARC
8
DEFAULT_255_2_778
10
6.1390274
20
3.8959794
40
2.468966
50
295.4600166
51
297.0852532
0
ARC
8
DEFAULT_255_2_778
10
6.0602339
20
4.0595213
40
2.6504977
50
293.0462049
51
295.4781306
0
ARC
8
DEFAULT_255_2_778
10
6.1069811
20
3.9500888
40
2.5314989
50
291.9001
51
293.0422133
0
ARC
8
DEFAULT_255_2_778
10
6.2285615
20
3.6394761
40
2.1979554
50
287.5681861
51
291.9795687
0
ARC
8
DEFAULT_255_2_778
10
6.4155058
20
3.0404416
40
1.5704355
50
281.1430413
51
287.6626073
0
ARC
8
DEFAULT_255_2_778
10
6.525495
20
2.4706199
40
0.9901023
50
271.7110542
51
281.2707883
0
ARC
8
DEFAULT_255_2_778
10
6.538496
20
2.2230601
40
0.7422861
50
270.0053909
51
271.2785437
0
ARC
8
DEFAULT_255_2_778
10
6.5164047
20
2.5352995
40
1.0547584
50
252.7172891
51
271.2039121
0
ARC
8
DEFAULT_255_2_778
10
6.4023375
20
2.1388072
40
0.6423411
50
228.7088531
51
251.925585
0
ARC
8
DEFAULT_255_2_778
10
6.2983621
20
2.7273642
40
0.6251872
50
61.235787
51
91.3653111
0
ARC
8
DEFAULT_255_2_778
10
6.3178346
20
2.7993545
40
0.5529888
50
22.850692
51
59.4147697
0
ARC
8
DEFAULT_255_2_778
10
5.9810834
20
2.6461635
40
0.922859
50
7.3425193
51
23.496245
0
ARC
8
DEFAULT_255_2_778
10
5.6068287
20
2.5833178
40
1.3021571
50
4.3318608
51
7.9805594
0
ARC
8
DEFAULT_255_2_778
10
6.39376
20
2.6486803
40
0.7108602
50
168.7169476
51
177.3397367
0
ARC
8
DEFAULT_255_2_778
10
6.5456569
20
2.6201328
40
0.8654087
50
159.5291587
51
168.8310783
0
ARC
8
DEFAULT_255_2_778
10
6.3689205
20
2.7122669
40
0.6680606
50
117.9380633
51
161.6313469
0
ARC
8
DEFAULT_255_2_778
10
6.2793689
20
2.8273911
40
0.5250012
50
89.5201377
51
115.1893096
0
ARC
8
DEFAULT_255_2_778
10
9.3943664
20
2.3988727
40
1.6033006
50
180.0213985
51
187.4976576
0
ARC
8
DEFAULT_255_2_778
10
9.3957738
20
2.3988074
40
1.6046875
50
187.4887887
51
189.244137
0
ARC
8
DEFAULT_255_2_778
10
9.1207454
20
2.3220102
40
1.3212726
50
187.8728864
51
228.6517836
0
ARC
8
DEFAULT_255_2_778
10
8.9529608
20
2.1795273
40
1.1039242
50
230.3039616
51
251.6405559
0
ARC
8
DEFAULT_255_2_778
10
9.0199669
20
2.3855784
40
1.3205932
50
251.6972195
51
265.9587939
0
ARC
8
DEFAULT_255_2_778
10
9.0464665
20
2.6561983
40
1.5924249
50
265.6939025
51
270.0395547
0
ARC
8
DEFAULT_255_2_778
10
9.0565416
20
2.9775807
40
1.9138279
50
269.7312849
51
280.0159373
0
ARC
8
DEFAULT_255_2_778
10
9.0609101
20
2.8836508
40
1.8206096
50
280.3946765
51
293.3007709
0
ARC
8
DEFAULT_255_2_778
10
8.7970702
20
3.5286967
40
2.5174428
50
293.0087284
51
296.1728601
0
ARC
8
DEFAULT_255_2_778
10
8.7637517
20
3.7930969
40
2.3763558
50
290.6364047
51
298.7696285
0
ARC
8
DEFAULT_255_2_778
10
9.1670786
20
2.692629
40
1.2043964
50
271.7619831
51
291.1310244
0
ARC
8
DEFAULT_255_2_778
10
9.1883747
20
2.4545179
40
0.965844
50
269.9994748
51
270.9335428
0
ARC
8
DEFAULT_255_2_778
10
9.1788836
20
2.3440635
40
0.8554421
50
248.0804966
51
270.6351129
0
ARC
8
DEFAULT_255_2_778
10
9.1717168
20
2.271172
40
0.7854138
50
193.0311251
51
246.5803408
0
ARC
8
DEFAULT_255_2_778
10
9.5358236
20
2.3921661
40
1.1679738
50
179.7003789
51
194.7865808
0
ARC
8
DEFAULT_255_2_778
10
9.5729864
20
2.4091717
40
1.2051698
50
161.7577184
51
180.518105
0
ARC
8
DEFAULT_255_2_778
10
9.1860348
20
2.5574219
40
0.7915028
50
101.6274887
51
163.1817261
0
ARC
8
DEFAULT_255_2_778
10
9.2163782
20
2.4033427
40
0.9485366
50
89.8074484
51
101.546929
0
ARC
8
DEFAULT_255_2_778
10
9.2144991
20
2.4173061
40
0.9345815
50
82.2552938
51
89.6893719
0
ARC
8
DEFAULT_255_2_778
10
9.1279759
20
1.8047953
40
1.5531682
50
74.6064456
51
82.1375305
0
ARC
8
DEFAULT_255_2_778
10
9.0034266
20
1.3166381
40
2.0568962
50
73.1354409
51
74.8710457
0
ARC
8
DEFAULT_255_2_778
10
8.9535335
20
1.1522743
40
2.2286659
50
70.6292975
51
73.1338044
0
ARC
8
DEFAULT_255_2_778
10
8.9927848
20
1.2615555
40
2.1125521
50
69.0250946
51
70.6505343
0
ARC
8
DEFAULT_255_2_778
10
9.1765705
20
1.7400464
40
1.5999796
50
67.9089957
51
69.0368209
0
ARC
8
DEFAULT_255_2_778
10
9.5013329
20
2.5385509
40
0.737959
50
67.0852149
51
67.9571527
0
ARC
8
DEFAULT_255_2_778
10
9.5699037
20
3.0951619
40
0.5988961
50
68.5754457
51
69.8419764
0
ARC
8
DEFAULT_255_2_778
10
9.3055936
20
2.3794684
40
1.3618351
50
69.7795248
51
71.5102295
0
ARC
8
DEFAULT_255_2_778
10
9.151847
20
1.9221075
40
1.8443459
50
71.4864648
51
73.6768817
0
ARC
8
DEFAULT_255_2_778
10
9.0997952
20
1.7471427
40
2.0268877
50
73.6548572
51
75.6480273
0
ARC
8
DEFAULT_255_2_778
10
9.104167
20
1.7672901
40
2.0062856
50
75.6263605
51
79.7146422
0
ARC
8
DEFAULT_255_2_778
10
9.1523046
20
2.0490354
40
1.7204753
50
79.6166728
51
86.7878864
0
ARC
8
DEFAULT_255_2_778
10
9.1717692
20
2.3355063
40
1.4333678
50
86.9230884
51
89.9721527
0
ARC
8
DEFAULT_255_2_778
10
9.1725252
20
2.1328933
40
1.6359806
50
90.0020796
51
97.5061049
0
ARC
8
DEFAULT_255_2_778
10
9.1105051
20
2.392957
40
1.3703197
50
96.3555252
51
135.870817
0
ARC
8
DEFAULT_255_2_778
10
8.9989442
20
2.5402729
40
1.1880031
50
137.2243209
51
158.2235518
0
ARC
8
DEFAULT_255_2_778
10
9.2135827
20
2.4558236
40
1.4186546
50
158.2722212
51
172.4325811
0
ARC
8
DEFAULT_255_2_778
10
9.5767379
20
2.4024956
40
1.785677
50
172.2709103
51
180.1354597
0
ARC
8
DEFAULT_255_2_778
10
1.0579559
20
3.0215539
40
0.8686023
50
179.6952483
51
191.3642268
0
ARC
8
DEFAULT_255_2_778
10
0.8661114
20
2.9828186
40
0.6728865
50
191.3494233
51
209.0002414
0
ARC
8
DEFAULT_255_2_778
10
0.9970019
20
3.096714
40
0.8433592
50
211.4574491
51
246.3810042
0
ARC
8
DEFAULT_255_2_778
10
1.6306957
20
4.3208296
40
2.220653
50
244.0540168
51
249.7562144
0
ARC
8
DEFAULT_255_2_778
10
2.8745222
20
7.6184118
40
5.7449815
50
249.4971096
51
250.7551462
0
ARC
8
DEFAULT_255_2_778
10
-8.1855631
20
-24.0759342
40
27.8237102
50
70.5129654
51
70.7646376
0
ARC
8
DEFAULT_255_2_778
10
0.2693
20
-0.2240663
40
2.5176983
50
66.7099692
51
70.8250629
0
ARC
8
DEFAULT_255_2_778
10
0.9230907
20
1.2902887
40
0.8682426
50
57.5345306
51
66.8262722
0
ARC
8
DEFAULT_255_2_778
10
1.1910656
20
1.7047325
40
0.374741
50
37.4820788
51
58.0887303
0
ARC
8
DEFAULT_255_2_778
10
1.2966438
20
1.7907653
40
0.2386421
50
359.2577541
51
36.5156518
0
ARC
8
DEFAULT_255_2_778
10
1.2562572
20
1.7764925
40
0.2792327
50
286.7351946
51
2.2949205
0
ARC
8
DEFAULT_255_2_778
10
1.0807269
20
2.2321663
40
0.7670379
50
271.894556
51
289.4914838
0
ARC
8
DEFAULT_255_2_778
10
1.03265
20
2.8300176
40
1.3664446
50
269.9419639
51
273.0806682
0
ARC
8
DEFAULT_255_2_778
10
1.0470733
20
3.1125951
40
1.6490969
50
256.3778901
51
269.4507814
0
ARC
8
DEFAULT_255_2_778
10
1.1705769
20
3.682926
40
2.2325175
50
251.6402879
51
256.7447185
0
ARC
8
DEFAULT_255_2_778
10
1.2315356
20
3.8743416
40
2.4333919
50
250.2791187
51
251.6976599
0
ARC
8
DEFAULT_255_2_778
10
1.2503971
20
3.9269804
40
2.4893079
50
247.4631426
51
250.2792825
0
ARC
8
DEFAULT_255_2_778
10
1.1987569
20
3.8042601
40
2.3561668
50
245.27402
51
247.4792088
0
ARC
8
DEFAULT_255_2_778
10
1.0291759
20
3.4365698
40
1.9512549
50
243.7147197
51
245.2809636
0
ARC
8
DEFAULT_255_2_778
10
0.7615599
20
2.8951057
40
1.3472668
50
242.5661853
51
243.7216122
0
ARC
8
DEFAULT_255_2_778
10
0.4057081
20
2.2107346
40
0.5759083
50
241.6761662
51
242.6187159
0
ARC
8
DEFAULT_255_2_778
10
0.8932185
20
2.991567
40
1.9313351
50
246.8026204
51
255.570645
0
ARC
8
DEFAULT_255_2_778
10
1.0008187
20
3.4126405
40
2.3659386
50
255.5880718
51
265.1714381
0
ARC
8
DEFAULT_255_2_778
10
1.0174958
20
3.5481889
40
2.5024152
50
265.0521907
51
269.9764179
0
ARC
8
DEFAULT_255_2_778
10
1.026902
20
2.9123967
40
1.866652
50
269.6796675
51
279.7865368
0
ARC
8
DEFAULT_255_2_778
10
1.1374571
20
2.2918193
40
1.2363184
50
279.6261033
51
294.1205646
0
ARC
8
DEFAULT_255_2_778
10
1.3141921
20
1.9070753
40
0.8129533
50
293.8333532
51
318.2090505
0
ARC
8
DEFAULT_255_2_778
10
1.3747056
20
1.8328974
40
0.7185585
50
319.4034836
51
1.3458049
0
ARC
8
DEFAULT_255_2_778
10
1.3158592
20
1.8552991
40
0.7772263
50
359.59269
51
14.0764383
0
ARC
8
DEFAULT_255_2_778
10
1.461992
20
1.8900859
40
0.6270234
50
14.2408853
51
39.8644722
0
ARC
8
DEFAULT_255_2_778
10
1.1836425
20
1.6084498
40
1.0218933
50
41.9820174
51
67.7297065
0
ARC
8
DEFAULT_255_2_778
10
0.4765379
20
0.1228194
40
2.666246
50
65.7664841
51
69.4358106
0
ARC
8
DEFAULT_255_2_778
10
-1.8422129
20
-6.0785146
40
9.2869055
50
69.4806063
51
70.640317
0
ARC
8
DEFAULT_255_2_778
10
4.7246101
20
12.4857861
40
10.4046652
50
250.0782506
51
250.4118238
0
ARC
8
DEFAULT_255_2_778
10
2.1731082
20
5.4844234
40
2.9529119
50
247.332689
51
250.3343263
0
ARC
8
DEFAULT_255_2_778
10
1.4875088
20
3.8439132
40
1.174902
50
241.4656724
51
247.3533252
0
ARC
8
DEFAULT_255_2_778
10
1.2038244
20
3.3256453
40
0.5840778
50
231.1026215
51
241.6281805
0
ARC
8
DEFAULT_255_2_778
10
1.010507
20
3.0857513
40
0.275986
50
195.8401136
51
231.064729
0
ARC
8
DEFAULT_255_2_778
10
0.9954414
20
3.0800838
40
0.2599488
50
183.3520494
51
195.5447355
0
ARC
8
DEFAULT_255_2_778
10
0.9916498
20
3.0797683
40
0.2561454
50
180.0021318
51
183.3311962
0
ARC
8
DEFAULT_255_2_778
10
0.983155
20
3.0805061
40
0.2476516
50
121.6054969
51
180.1728802
0
ARC
8
DEFAULT_255_2_778
10
1.0074817
20
3.046052
40
0.2897562
50
112.2286515
51
122.1319251
0
ARC
8
DEFAULT_255_2_778
10
1.1924235
20
2.5951377
40
0.7771236
50
98.0224828
51
112.2739707
0
ARC
8
DEFAULT_255_2_778
10
1.2216453
20
2.3878153
40
0.9864953
50
89.7863091
51
98.0225701
0
ARC
8
DEFAULT_255_2_778
10
1.2189188
20
1.941556
40
1.432762
50
82.7427398
51
89.7438361
0
ARC
8
DEFAULT_255_2_778
10
1.1250749
20
1.1764318
40
2.2036145
50
78.3227115
51
82.8353543
0
ARC
8
DEFAULT_255_2_778
10
0.9007173
20
0.0797734
40
3.3229862
50
75.0985322
51
78.3614832
0
ARC
8
DEFAULT_255_2_778
10
0.5337919
20
-1.3159636
40
4.7661435
50
73.1383713
51
75.1506905
0
ARC
8
DEFAULT_255_2_778
10
1.3088054
20
1.9423139
40
1.8285131
50
70.5966955
51
76.0346165
0
ARC
8
DEFAULT_255_2_778
10
1.1293812
20
1.2500185
40
2.5436565
50
75.8759243
51
81.7067354
0
ARC
8
DEFAULT_255_2_778
10
1.2035272
20
1.8115052
40
1.9773615
50
81.4859909
51
88.2634672
0
ARC
8
DEFAULT_255_2_778
10
1.2296199
20
2.4108956
40
1.3774783
50
88.5927795
51
89.9856118
0
ARC
8
DEFAULT_255_2_778
10
1.2193358
20
2.1123014
40
1.6761062
50
89.6366202
51
102.0627056
0
ARC
8
DEFAULT_255_2_778
10
1.0989156
20
2.6557576
40
1.1194919
50
101.8483313
51
119.4274437
0
ARC
8
DEFAULT_255_2_778
10
0.8654517
20
3.0331137
40
0.6763551
50
117.9075961
51
180.0006777
0
ARC
8
DEFAULT_255_2_778
10
0.9779785
20
3.0261801
40
0.7889125
50
179.4970078
51
180.0004477
0
ARC
8
DEFAULT_255_2_778
10
16.0452611
20
3.0217489
40
0.8741074
50
179.6968421
51
191.2902182
0
ARC
8
DEFAULT_255_2_778
10
15.8515812
20
2.9829525
40
0.6765801
50
191.2794399
51
208.5052303
0
ARC
8
DEFAULT_255_2_778
10
15.9744479
20
3.0898541
40
0.8363154
50
210.9247254
51
246.1882867
0
ARC
8
DEFAULT_255_2_778
10
16.6031526
20
4.294242
40
2.1938142
50
243.8648809
51
249.6324756
0
ARC
8
DEFAULT_255_2_778
10
17.8419709
20
7.5559356
40
5.6828042
50
249.3686764
51
250.6328955
0
ARC
8
DEFAULT_255_2_778
10
6.848754
20
-23.7321801
40
27.4803833
50
70.389207
51
70.6424959
0
ARC
8
DEFAULT_255_2_778
10
15.2487697
20
-0.1968479
40
2.4909839
50
66.5673479
51
70.7026212
0
ARC
8
DEFAULT_255_2_778
10
15.8987187
20
1.2984108
40
0.8605778
50
57.3561606
51
66.6822419
0
ARC
8
DEFAULT_255_2_778
10
16.164623
20
1.7069082
40
0.3731907
50
37.2837433
51
57.9015447
0
ARC
8
DEFAULT_255_2_778
10
16.2683532
20
1.7910333
40
0.2397335
50
359.2448923
51
36.3043228
0
ARC
8
DEFAULT_255_2_778
10
16.2288993
20
1.7763473
40
0.2794044
50
323.1509059
51
2.364365
0
ARC
8
DEFAULT_255_2_778
10
16.1959501
20
1.8327169
40
0.3405211
50
281.3333158
51
318.8819224
0
ARC
8
DEFAULT_255_2_778
10
16.0372085
20
2.4651963
40
0.9923582
50
269.5920793
51
283.1438903
0
ARC
8
DEFAULT_255_2_778
10
16.0128727
20
3.140965
40
1.6681911
50
269.9963293
51
270.5931884
0
ARC
8
DEFAULT_255_2_778
10
16.0285473
20
3.119105
40
1.6464068
50
256.358204
51
269.450789
0
ARC
8
DEFAULT_255_2_778
10
16.1518931
20
3.6878117
40
2.2282066
50
251.611875
51
256.7249871
0
ARC
8
DEFAULT_255_2_778
10
16.2128321
20
3.8788415
40
2.4287073
50
250.2483602
51
251.6692795
0
ARC
8
DEFAULT_255_2_778
10
16.2316619
20
3.9312787
40
2.4844228
50
247.4273819
51
250.2483335
0
ARC
8
DEFAULT_255_2_778
10
16.1801055
20
3.8089631
40
2.3516873
50
245.2345318
51
247.4433521
0
ARC
8
DEFAULT_255_2_778
10
16.0105672
20
3.4420027
40
1.9474558
50
243.6722317
51
245.2411333
0
ARC
8
DEFAULT_255_2_778
10
15.7428905
20
2.9014243
40
1.3442346
50
242.5213689
51
243.6791148
0
ARC
8
DEFAULT_255_2_778
10
15.3879185
20
2.2200409
40
0.5759327
50
241.6310874
51
242.5733682
0
ARC
8
DEFAULT_255_2_778
10
15.8825213
20
3.042243
40
1.9730805
50
247.0847866
51
255.4948074
0
ARC
8
DEFAULT_255_2_778
10
15.9862919
20
3.4465023
40
2.3904453
50
255.5137686
51
265.0855447
0
ARC
8
DEFAULT_255_2_778
10
15.9995165
20
3.5428481
40
2.4875746
50
264.9721724
51
269.9688917
0
ARC
8
DEFAULT_255_2_778
10
16.0086041
20
2.9628097
40
1.9075644
50
269.6864753
51
279.3371329
0
ARC
8
DEFAULT_255_2_778
10
16.1187099
20
2.314257
40
1.2497451
50
279.1801711
51
293.0619971
0
ARC
8
DEFAULT_255_2_778
10
16.2955199
20
1.9101334
40
0.8086691
50
292.7521268
51
316.4760733
0
ARC
8
DEFAULT_255_2_778
10
16.3559715
20
1.8300501
40
0.7098768
50
317.8028495
51
1.6163816
0
ARC
8
DEFAULT_255_2_778
10
16.2815747
20
1.8556423
40
0.7840109
50
359.5930576
51
13.9751775
0
ARC
8
DEFAULT_255_2_778
10
16.4325571
20
1.8915578
40
0.6288258
50
14.1218785
51
39.3519803
0
ARC
8
DEFAULT_255_2_778
10
16.1569383
20
1.6143214
40
1.0185136
50
41.5808974
51
67.8842601
0
ARC
8
DEFAULT_255_2_778
10
15.440947
20
0.1094075
40
2.6840036
50
65.8186003
51
69.3056484
0
ARC
8
DEFAULT_255_2_778
10
13.1376484
20
-6.0136047
40
9.2259023
50
69.3620313
51
70.5118119
0
ARC
8
DEFAULT_255_2_778
10
19.7314624
20
12.4960641
40
10.4232126
50
249.9582581
51
250.2864423
0
ARC
8
DEFAULT_255_2_778
10
17.1579592
20
5.479955
40
2.9500546
50
247.2254937
51
250.2147607
0
ARC
8
DEFAULT_255_2_778
10
16.4707548
20
3.8441213
40
1.1757375
50
241.3815294
51
247.2443469
0
ARC
8
DEFAULT_255_2_778
10
16.187651
20
3.3286433
40
0.5876386
50
231.0912616
51
241.5390565
0
ARC
8
DEFAULT_255_2_778
10
15.9949658
20
3.0918416
40
0.2823525
50
203.559507
51
231.3361162
0
ARC
8
DEFAULT_255_2_778
10
15.9574602
20
3.0735482
40
0.2406678
50
185.2994561
51
203.1363251
0
ARC
8
DEFAULT_255_2_778
10
15.946874
20
3.0721257
40
0.2299959
50
180.0056835
51
185.190175
0
ARC
8
DEFAULT_255_2_778
10
15.9485409
20
3.0706493
40
0.2316674
50
125.4482602
51
179.6405044
0
ARC
8
DEFAULT_255_2_778
10
15.9922532
20
3.0176667
40
0.3002206
50
112.1282329
51
126.3799191
0
ARC
8
DEFAULT_255_2_778
10
16.174838
20
2.579449
40
0.7749473
50
97.4714186
51
112.4290039
0
ARC
8
DEFAULT_255_2_778
10
16.1996218
20
2.3913093
40
0.9647122
50
89.8162075
51
97.4779086
0
ARC
8
DEFAULT_255_2_778
10
16.196395
20
1.9687288
40
1.3873022
50
82.7030099
51
89.7389275
0
ARC
8
DEFAULT_255_2_778
10
16.1005339
20
1.193825
40
2.1681082
50
78.2311994
51
82.7912151
0
ARC
8
DEFAULT_255_2_778
10
15.8615407
20
0.0345479
40
3.3517624
50
75.039545
51
78.2735987
0
ARC
8
DEFAULT_255_2_778
10
15.4594264
20
-1.4888188
40
4.9273025
50
73.1393499
51
75.0950854
0
ARC
8
DEFAULT_255_2_778
10
16.1497662
20
1.483869
40
2.2872121
50
71.1547528
51
88.6797314
0
ARC
8
DEFAULT_255_2_778
10
16.1912724
20
2.0099883
40
1.7605212
50
89.6357101
51
101.1220775
0
ARC
8
DEFAULT_255_2_778
10
16.0672005
20
2.6192309
40
1.1387954
50
100.9098224
51
117.4026868
0
ARC
8
DEFAULT_255_2_778
10
15.8537893
20
3.0107513
40
0.6930472
50
116.6361916
51
152.7076399
0
ARC
8
DEFAULT_255_2_778
10
15.8443033
20
3.0348334
40
0.6737906
50
154.1577794
51
180.7193774
0
LINE
8
DEFAULT_255_2_778
10
2.4613659
20
-0.2210261
11
3.0079659
21
-0.2210261
0
LINE
8
DEFAULT_255_2_778
10
3.0079659
20
-0.2210261
11
3.0079659
21
1.1446739
0
LINE
8
DEFAULT_255_2_778
10
2.4613659
20
3.5785739
11
2.4613659
21
-0.2210261
0
LINE
8
DEFAULT_255_2_778
10
3.0079659
20
1.5926739
11
3.0079659
21
3.2888739
0
LINE
8
DEFAULT_255_2_778
10
7.3087659
20
1.3132739
11
7.3087659
21
1.7214739
0
LINE
8
DEFAULT_255_2_778
10
5.6886659
20
2.2699739
11
7.4709659
21
2.2699739
0
LINE
8
DEFAULT_255_2_778
10
7.4709659
20
2.2699739
11
7.4709659
21
2.4339739
0
LINE
8
DEFAULT_255_2_778
10
7.3084659
20
1.3134739
11
7.3084659
21
1.7217739
0
LINE
8
DEFAULT_255_2_778
10
6.9052659
20
2.6816739
11
5.6836659
21
2.6816739
0
LINE
8
DEFAULT_255_2_778
10
9.9074659
20
1.2693739
11
9.9074659
21
1.7100739
0
LINE
8
DEFAULT_255_2_778
10
9.7886659
20
3.2182739
11
9.7886659
21
3.6526739
0
LINE
8
DEFAULT_255_2_778
10
11.0893659
20
3.7092739
11
12.0193659
21
3.7092739
0
LINE
8
DEFAULT_255_2_778
10
12.0193659
20
3.7092739
11
12.0193659
21
4.1447739
0
LINE
8
DEFAULT_255_2_778
10
12.0193659
20
4.1447739
11
11.5595659
21
4.1447739
0
LINE
8
DEFAULT_255_2_778
10
11.5595659
20
4.1447739
11
11.5595659
21
4.6279739
0
LINE
8
DEFAULT_255_2_778
10
11.5595659
20
4.6279739
11
11.0893659
21
4.6284739
0
LINE
8
DEFAULT_255_2_778
10
11.0893659
20
4.6284739
11
11.0893659
21
3.7092739
0
LINE
8
DEFAULT_255_2_778
10
14.1767659
20
1.1232739
11
14.7017659
21
1.1232739
0
LINE
8
DEFAULT_255_2_778
10
14.7017659
20
1.1232739
11
14.7017659
21
3.7092739
0
LINE
8
DEFAULT_255_2_778
10
14.7017659
20
3.7092739
11
14.1767659
21
3.7092739
0
LINE
8
DEFAULT_255_2_778
10
14.1767659
20
3.7092739
11
14.1767659
21
1.1232739
0
LINE
8
DEFAULT_255_2_778
10
0.1324659
20
1.7037739
11
0.1324659
21
1.2163739
0
LINE
8
DEFAULT_255_2_778
10
1.9162659
20
3.2452739
11
1.9162659
21
3.6669739
0
LINE
8
DEFAULT_255_2_778
10
15.1142659
20
1.7132739
11
15.1142659
21
1.2248739
0
LINE
8
DEFAULT_255_2_778
10
16.8885659
20
3.2266739
11
16.8885659
21
3.6484739
0
ARC
8
DEFAULT_255_2_778
10
13.4674317
20
2.6344498
40
0.6632403
50
96.9025911
51
139.2827773
0
ARC
8
DEFAULT_255_2_778
10
13.5304319
20
2.2654007
40
1.0373454
50
89.7623991
51
97.9073712
0
ARC
8
DEFAULT_255_2_778
10
13.5318518
20
1.8667181
40
1.436022
50
85.1773744
51
89.8850143
0
ARC
8
DEFAULT_255_2_778
10
13.4912851
20
1.3789141
40
1.9255097
50
81.4510436
51
85.1948486
0
ARC
8
DEFAULT_255_2_778
10
13.4635153
20
1.1707171
40
2.1355244
50
81.4302596
51
81.5446307
0
ARC
8
DEFAULT_255_2_778
10
13.6468916
20
2.0909048
40
1.6668573
50
85.359835
51
89.935094
0
ARC
8
DEFAULT_255_2_778
10
13.6346289
20
2.5377761
40
1.2200669
50
89.3354377
51
108.6316371
0
ARC
8
DEFAULT_255_2_778
10
13.583485
20
2.7201674
40
1.0309416
50
109.1766987
51
127.2867222
0
LINE
8
DEFAULT_255_2_778
10
12.9589365
20
3.5403988
11
12.9589365
21
3.7091988
0
LINE
8
DEFAULT_255_2_778
10
12.9589365
20
3.7091988
11
12.4178365
21
3.7091988
0
LINE
8
DEFAULT_255_2_778
10
12.4178365
20
3.7091988
11
12.4178365
21
1.1223988
0
LINE
8
DEFAULT_255_2_778
10
12.4178365
20
1.1223988
11
12.9647365
21
1.1223988
0
LINE
8
DEFAULT_255_2_778
10
12.9647365
20
1.1223988
11
12.9647365
21
3.0670988
0
LINE
8
DEFAULT_255_2_778
10
13.7817365
20
3.2823988
11
13.7817365
21
3.7522988
0
ENDSEC
0
EOF