0
SECTION
2
HEADER
9
$MEASUREMENT
70
1
0
ENDSEC
0
SECTION
2
TABLES
0
TABLE
2
LTYPE
0
LTYPE
72
65
70
64
2
CONTINUOUS
3
______
73
0
40
0
0
ENDTAB
0
TABLE
2
LAYER
0
LAYER
2
DEFAULT_255_2_778
70
0
62
255
6
CONTINUOUS
0
ENDTAB
0
ENDSEC
0
SECTION
2
ENTITIES
0
ARC
8
DEFAULT_255_2_778
10
7.3289968
20
13.0034722
40
0.1660654
50
40.2797538
51
89.8306712
0
ARC
8
DEFAULT_255_2_778
10
7.3292344
20
13.0035106
40
0.1660265
50
89.9126193
51
139.4996437
0
ARC
8
DEFAULT_255_2_778
10
7.0103597
20
12.6188793
40
0.1754725
50
139.070357
51
179.8832332
0
ARC
8
DEFAULT_255_2_778
10
7.0096434
20
7.2052262
40
0.1747558
50
179.9637265
51
221.0170503
0
ARC
8
DEFAULT_255_2_778
10
7.3328949
20
6.8272131
40
0.1703838
50
221.3997287
51
269.4594912
0
ARC
8
DEFAULT_255_2_778
10
7.3301778
20
6.823519
40
0.1666859
50
270.3814973
51
319.5323252
0
ARC
8
DEFAULT_255_2_778
10
7.6473394
20
7.2068346
40
0.1763482
50
319.7266281
51
0.0332289
0
ARC
8
DEFAULT_255_2_778
10
7.645978
20
12.6189964
40
0.1750098
50
359.9150315
51
40.5347287
0
ARC
8
DEFAULT_255_2_778
10
6.049091
20
11.9989827
40
0.1117542
50
90.0017167
51
140.7190452
0
ARC
8
DEFAULT_255_2_778
10
5.7287994
20
11.600593
40
0.1186121
50
140.187967
51
179.8821879
0
ARC
8
DEFAULT_255_2_778
10
5.7292156
20
7.1785332
40
0.1190295
50
179.7094205
51
219.7401307
0
ARC
8
DEFAULT_255_2_778
10
6.0610895
20
6.7682153
40
0.1119091
50
219.2982574
51
269.8449349
0
ARC
8
DEFAULT_255_2_778
10
6.0607843
20
6.7677903
40
0.1114837
50
270.001188
51
271.3380501
0
ARC
8
DEFAULT_255_2_778
10
6.061421
20
6.7704138
40
0.1140939
50
270.9876678
51
321.7230712
0
ARC
8
DEFAULT_255_2_778
10
6.3720791
20
7.1707232
40
0.119412
50
321.775002
51
359.9242198
0
ARC
8
DEFAULT_255_2_778
10
6.3727852
20
7.1705652
40
0.1187056
50
0.0000152
51
0.4207216
0
ARC
8
DEFAULT_255_2_778
10
6.370119
20
11.6078355
40
0.1213688
50
0.095042
51
39.930367
0
ARC
8
DEFAULT_255_2_778
10
6.0499388
20
11.9969116
40
0.1135299
50
40.5621232
51
90.0160281
0
ARC
8
DEFAULT_255_2_778
10
6.0499305
20
11.9922958
40
0.1181456
50
90.0113508
51
90.5057447
0
ARC
8
DEFAULT_255_2_778
10
10.0361832
20
6.8252278
40
0.168396
50
270.4438206
51
318.9037976
0
ARC
8
DEFAULT_255_2_778
10
10.3603695
20
7.2046524
40
0.17322
50
318.7923813
51
359.9567639
0
ARC
8
DEFAULT_255_2_778
10
10.3674497
20
7.2045624
40
0.1661399
50
359.9859498
51
0.2670856
0
ARC
8
DEFAULT_255_2_778
10
10.3584044
20
12.6193341
40
0.1751833
50
359.9681919
51
40.8148419
0
ARC
8
DEFAULT_255_2_778
10
10.0397529
20
13.006221
40
0.1641161
50
39.8288723
51
89.9750529
0
LINE
8
DEFAULT_255_2_778
10
10.0398243
20
13.1703372
11
10.0394876
21
13.1703369
0
ARC
8
DEFAULT_255_2_778
10
10.0398092
20
13.0062816
40
0.1640556
50
90.1123141
51
140.4080097
0
ARC
8
DEFAULT_255_2_778
10
9.7281175
20
12.6185058
40
0.1796301
50
140.5114775
51
179.9263098
0
ARC
8
DEFAULT_255_2_778
10
9.7193104
20
7.2058728
40
0.173726
50
179.6490518
51
220.5910912
0
ARC
8
DEFAULT_255_2_778
10
10.0376935
20
6.8215743
40
0.1647382
50
220.1571656
51
269.8240561
0
ARC
8
DEFAULT_255_2_778
10
11.3078752
20
6.7693416
40
0.1135221
50
268.9967906
51
269.9936468
0
ARC
8
DEFAULT_255_2_778
10
11.3077739
20
6.7686231
40
0.1128035
50
270.0450709
51
320.4774211
0
ARC
8
DEFAULT_255_2_778
10
11.6414147
20
7.1774501
40
0.1176797
50
320.0189762
51
359.9677199
0
ARC
8
DEFAULT_255_2_778
10
11.6435455
20
7.1774018
40
0.1155488
50
359.9910443
51
0.6124266
0
ARC
8
DEFAULT_255_2_778
10
11.6460314
20
11.6015586
40
0.1130629
50
359.3808486
51
0.0090436
0
ARC
8
DEFAULT_255_2_778
10
11.644281
20
11.6014736
40
0.1148133
50
0.0513517
51
40.498649
0
ARC
8
DEFAULT_255_2_778
10
11.3191134
20
11.9977718
40
0.11297
50
39.1769042
51
89.4551657
0
ARC
8
DEFAULT_255_2_778
10
11.3194816
20
11.997709
40
0.11303
50
89.6421017
51
89.9829412
0
ARC
8
DEFAULT_255_2_778
10
11.3196521
20
11.9974411
40
0.1132978
50
90.0692007
51
139.8219793
0
ARC
8
DEFAULT_255_2_778
10
10.9966164
20
11.6082113
40
0.1188296
50
139.4036226
51
180.0266254
0
ARC
8
DEFAULT_255_2_778
10
10.9876249
20
11.6081561
40
0.109838
50
180.0000046
51
180.2186899
0
ARC
8
DEFAULT_255_2_778
10
11.0015043
20
7.1711997
40
0.123719
50
180.3532629
51
217.527642
0
ARC
8
DEFAULT_255_2_778
10
11.3079491
20
6.7684749
40
0.1132569
50
218.0707567
51
268.9570643
0
ARC
8
DEFAULT_255_2_778
10
4.8213441
20
10.7796464
40
0.1063002
50
89.2219232
51
90.0076277
0
ARC
8
DEFAULT_255_2_778
10
4.8214808
20
10.7770938
40
0.108853
50
90.0793899
51
135.4652972
0
ARC
8
DEFAULT_255_2_778
10
4.480109
20
10.4560027
40
0.0862369
50
135.3228482
51
178.9142087
0
ARC
8
DEFAULT_255_2_778
10
4.4791548
20
8.3069192
40
0.0852681
50
180.2568897
51
226.4327315
0
ARC
8
DEFAULT_255_2_778
10
4.8338617
20
7.9976188
40
0.1110457
50
226.9003966
51
269.9815839
0
ARC
8
DEFAULT_255_2_778
10
4.8338169
20
7.998035
40
0.1114619
50
270.0047007
51
271.9386866
0
ARC
8
DEFAULT_255_2_778
10
4.8376351
20
7.9963968
40
0.1097599
50
269.9752049
51
315.6986108
0
ARC
8
DEFAULT_255_2_778
10
5.1707265
20
8.3099766
40
0.0843629
50
315.5865874
51
359.6334396
0
ARC
8
DEFAULT_255_2_778
10
5.1702882
20
10.4641143
40
0.0848044
50
0.6233165
51
45.7277028
0
ARC
8
DEFAULT_255_2_778
10
4.8246495
20
10.7720482
40
0.1139046
50
46.5476158
51
89.9743534
0
ARC
8
DEFAULT_255_2_778
10
4.8247014
20
10.7714999
40
0.114453
50
90.000426
51
90.958076
0
ARC
8
DEFAULT_255_2_778
10
12.5357461
20
7.9973049
40
0.1107319
50
268.0548986
51
269.9955807
0
ARC
8
DEFAULT_255_2_778
10
12.5356442
20
7.9977942
40
0.1112211
50
270.0480767
51
313.0639417
0
ARC
8
DEFAULT_255_2_778
10
12.8915279
20
8.3069967
40
0.084361
50
312.8383318
51
359.6876992
0
ARC
8
DEFAULT_255_2_778
10
12.8880968
20
10.4556609
40
0.087813
50
1.2893848
51
43.9780917
0
ARC
8
DEFAULT_255_2_778
10
12.5473931
20
10.7748983
40
0.1110391
50
45.0160662
51
90.0150159
0
LINE
8
DEFAULT_255_2_778
10
12.547364
20
10.8859375
11
12.5469876
21
10.8859369
0
ARC
8
DEFAULT_255_2_778
10
12.5454572
20
10.7733373
40
0.11261
50
89.2212983
51
89.999775
0
ARC
8
DEFAULT_255_2_778
10
12.5454073
20
10.772361
40
0.1135861
50
89.9745971
51
133.7314564
0
ARC
8
DEFAULT_255_2_778
10
12.1999423
20
10.4635199
40
0.0852633
50
134.3051369
51
179.1821536
0
ARC
8
DEFAULT_255_2_778
10
12.2004138
20
8.3103409
40
0.0857347
50
180.8046529
51
224.0443522
0
ARC
8
DEFAULT_255_2_778
10
12.5321153
20
7.9970397
40
0.1104029
50
224.660593
51
269.9337227
0
LINE
8
DEFAULT_255_2_778
10
7.2029876
20
13.1113369
11
6.8777876
21
12.7338369
0
LINE
8
DEFAULT_255_2_778
10
6.8348876
20
12.6192369
11
6.8348876
21
7.2053369
0
LINE
8
DEFAULT_255_2_778
10
6.8777876
20
7.0905369
11
7.2050876
21
6.7145369
0
LINE
8
DEFAULT_255_2_778
10
7.4569876
20
6.7153369
11
7.7818876
21
7.0928369
0
LINE
8
DEFAULT_255_2_778
10
7.8236876
20
7.2069369
11
7.8209876
21
12.6187369
0
LINE
8
DEFAULT_255_2_778
10
7.7789876
20
12.7327369
11
7.4553876
21
13.1108369
0
LINE
8
DEFAULT_255_2_778
10
7.4553876
20
13.1108369
11
7.4556876
21
13.1108369
0
LINE
8
DEFAULT_255_2_778
10
5.9625876
20
12.0697369
11
5.6376876
21
11.6765369
0
LINE
8
DEFAULT_255_2_778
10
5.6101876
20
11.6008369
11
5.6101876
21
7.1791369
0
LINE
8
DEFAULT_255_2_778
10
5.6376876
20
7.1024369
11
5.9744876
21
6.6973369
0
LINE
8
DEFAULT_255_2_778
10
6.1509876
20
6.6997369
11
6.4658876
21
7.0968369
0
LINE
8
DEFAULT_255_2_778
10
6.4914876
20
7.1714369
11
6.4914876
21
11.6080369
0
LINE
8
DEFAULT_255_2_778
10
6.4631876
20
11.6857369
11
6.1361876
21
12.0707369
0
LINE
8
DEFAULT_255_2_778
10
6.0488876
20
12.1104369
11
6.0490876
21
12.1107369
0
LINE
8
DEFAULT_255_2_778
10
10.1630876
20
6.7145369
11
10.4906876
21
7.0905369
0
LINE
8
DEFAULT_255_2_778
10
10.5335876
20
7.2053369
11
10.5335876
21
12.6192369
0
LINE
8
DEFAULT_255_2_778
10
10.4909876
20
12.7338369
11
10.1657876
21
13.1113369
0
LINE
8
DEFAULT_255_2_778
10
9.9133876
20
13.1108369
11
9.5894876
21
12.7327369
0
LINE
8
DEFAULT_255_2_778
10
9.5484876
20
12.6187369
11
9.5455876
21
7.2069369
0
LINE
8
DEFAULT_255_2_778
10
9.5873876
20
7.0928369
11
9.9117876
21
6.7153369
0
LINE
8
DEFAULT_255_2_778
10
10.0371876
20
6.6568369
11
10.0374876
21
6.6568369
0
LINE
8
DEFAULT_255_2_778
10
11.3947876
20
6.6968369
11
11.7315876
21
7.1018369
0
LINE
8
DEFAULT_255_2_778
10
11.7590876
20
7.1786369
11
11.7590876
21
11.6003369
0
LINE
8
DEFAULT_255_2_778
10
11.7315876
20
11.6760369
11
11.4066876
21
12.0691369
0
LINE
8
DEFAULT_255_2_778
10
11.2330876
20
12.0705369
11
10.9063876
21
11.6855369
0
LINE
8
DEFAULT_255_2_778
10
10.8777876
20
11.6077369
11
10.8777876
21
7.1704369
0
LINE
8
DEFAULT_255_2_778
10
10.9033876
20
7.0958369
11
11.2187876
21
6.6986369
0
LINE
8
DEFAULT_255_2_778
10
11.3058876
20
6.6552369
11
11.3058876
21
6.6558369
0
LINE
8
DEFAULT_255_2_778
10
4.7438876
20
10.8534369
11
4.4187876
21
10.5166369
0
LINE
8
DEFAULT_255_2_778
10
4.3938876
20
10.4576369
11
4.3938876
21
8.3065369
0
LINE
8
DEFAULT_255_2_778
10
4.4203876
20
8.2451369
11
4.7579876
21
7.9165369
0
LINE
8
DEFAULT_255_2_778
10
4.9161876
20
7.9197369
11
5.2309876
21
8.2509369
0
LINE
8
DEFAULT_255_2_778
10
5.2550876
20
8.3094369
11
5.2550876
21
10.4650369
0
LINE
8
DEFAULT_255_2_778
10
5.2294876
20
10.5248369
11
4.9029876
21
10.8547369
0
LINE
8
DEFAULT_255_2_778
10
4.8227876
20
10.8859369
11
4.8227876
21
10.8859369
0
LINE
8
DEFAULT_255_2_778
10
12.6115876
20
7.9165369
11
12.9488876
21
8.2451369
0
LINE
8
DEFAULT_255_2_778
10
12.9758876
20
8.3065369
11
12.9758876
21
10.4576369
0
LINE
8
DEFAULT_255_2_778
10
12.9512876
20
10.5166369
11
12.6258876
21
10.8534369
0
LINE
8
DEFAULT_255_2_778
10
12.4668876
20
10.8544369
11
12.1403876
21
10.5245369
0
LINE
8
DEFAULT_255_2_778
10
12.1146876
20
10.4647369
11
12.1146876
21
8.3091369
0
LINE
8
DEFAULT_255_2_778
10
12.1387876
20
8.2507369
11
12.4535876
21
7.9194369
0
LINE
8
DEFAULT_255_2_778
10
12.5319876
20
7.8866369
11
12.5319876
21
7.8866369
0
ARC
8
DEFAULT_255_2_778
10
10.7761866
20
7.3553677
40
3.7744579
50
265.5657573
51
269.4970827
0
ARC
8
DEFAULT_255_2_778
10
10.7802252
20
7.5645287
40
3.9836469
50
269.4654055
51
270.0011476
0
ARC
8
DEFAULT_255_2_778
10
10.7756165
20
7.8949649
40
4.3140857
50
270.0622679
51
275.2670487
0
ARC
8
DEFAULT_255_2_778
10
10.7337408
20
8.3863322
40
4.8072236
50
275.2264342
51
278.0619503
0
ARC
8
DEFAULT_255_2_778
10
10.5017865
20
9.6474164
40
6.0886035
50
278.5588482
51
294.7966737
0
ARC
8
DEFAULT_255_2_778
10
10.4048724
20
9.9424999
40
6.3972267
50
294.4762223
51
300.4616586
0
ARC
8
DEFAULT_255_2_778
10
10.8421162
20
9.2020993
40
5.537359
50
300.4457688
51
305.4818349
0
ARC
8
DEFAULT_255_2_778
10
11.5125607
20
8.2656444
40
4.3856487
50
305.4507111
51
310.8486834
0
ARC
8
DEFAULT_255_2_778
10
12.0713728
20
7.6092963
40
3.5236685
50
310.95577
51
313.4014832
0
ARC
8
DEFAULT_255_2_778
10
12.3208716
20
7.3437606
40
3.1593096
50
313.4228154
51
314.722874
0
ARC
8
DEFAULT_255_2_778
10
12.453262
20
7.2096965
40
2.9708945
50
314.7281219
51
315.541591
0
ARC
8
DEFAULT_255_2_778
10
9.7351635
20
9.9008626
40
6.7958528
50
315.397324
51
324.393142
0
ARC
8
DEFAULT_255_2_778
10
10.1898573
20
9.5583837
40
6.2267894
50
324.5193312
51
346.0462132
0
ARC
8
DEFAULT_255_2_778
10
8.9086604
20
9.9015263
40
7.5529623
50
345.8636226
51
353.1313962
0
ARC
8
DEFAULT_255_2_778
10
7.2689553
20
10.1030142
40
9.2049968
50
353.1068415
51
358.4754849
0
ARC
8
DEFAULT_255_2_778
10
5.8550943
20
10.1557288
40
10.6197705
50
358.3941215
51
0.0101373
0
ARC
8
DEFAULT_255_2_778
10
8.3751939
20
10.1676919
40
8.0996772
50
359.928667
51
6.7233115
0
ARC
8
DEFAULT_255_2_778
10
9.3143913
20
10.2802409
40
7.1537622
50
6.7087452
51
15.0051702
0
ARC
8
DEFAULT_255_2_778
10
10.0642235
20
10.4830959
40
6.3769772
50
14.9889802
51
25.7133211
0
ARC
8
DEFAULT_255_2_778
10
10.5277665
20
10.7066199
40
5.8623559
50
25.7106525
51
57.1308006
0
ARC
8
DEFAULT_255_2_778
10
10.1303334
20
10.1185012
40
6.572036
50
57.0033141
51
67.3669983
0
ARC
8
DEFAULT_255_2_778
10
9.8023707
20
9.3384031
40
7.4182672
50
67.347666
51
75.4364349
0
ARC
8
DEFAULT_255_2_778
10
9.549456
20
8.3731349
40
8.4161173
50
75.4223568
51
82.1471872
0
ARC
8
DEFAULT_255_2_778
10
9.3920596
20
7.2418533
40
9.5582951
50
82.1390659
51
88.0349764
0
ARC
8
DEFAULT_255_2_778
10
9.3521111
20
6.3660859
40
10.434922
50
87.9806431
51
90.0079415
0
ARC
8
DEFAULT_255_2_778
10
9.3413045
20
6.9629555
40
9.8380567
50
89.9454867
51
98.5157498
0
ARC
8
DEFAULT_255_2_778
10
9.2446656
20
7.595772
40
9.1979066
50
98.5041311
51
110.5351367
0
ARC
8
DEFAULT_255_2_778
10
9.190274
20
7.7780423
40
9.008148
50
110.6178326
51
132.9336669
0
ARC
8
DEFAULT_255_2_778
10
9.6106804
20
7.3074252
40
9.6390756
50
132.8577972
51
141.2419291
0
ARC
8
DEFAULT_255_2_778
10
8.7790571
20
7.9406351
40
8.5942104
50
141.0629308
51
157.3629957
0
ARC
8
DEFAULT_255_2_778
10
8.7048655
20
7.9863549
40
8.508148
50
157.4548635
51
174.1513235
0
ARC
8
DEFAULT_255_2_778
10
9.0834362
20
7.9400284
40
8.889472
50
174.1029293
51
180.0181799
0
ARC
8
DEFAULT_255_2_778
10
8.8663209
20
7.9267621
40
8.6723624
50
179.9309885
51
186.8204269
0
ARC
8
DEFAULT_255_2_778
10
7.9544543
20
7.8161067
40
7.7538078
50
186.8087448
51
195.5812096
0
ARC
8
DEFAULT_255_2_778
10
7.3389085
20
7.643304
40
7.1144674
50
195.5722357
51
209.1771698
0
ARC
8
DEFAULT_255_2_778
10
7.4285296
20
7.7160642
40
7.2282155
50
209.3344099
51
226.3942577
0
ARC
8
DEFAULT_255_2_778
10
8.0015641
20
8.2911569
40
8.0398799
50
226.2638512
51
232.4413148
0
ARC
8
DEFAULT_255_2_778
10
7.6048251
20
7.8113397
40
7.4177056
50
232.6114224
51
239.4160711
0
ARC
8
DEFAULT_255_2_778
10
7.9645575
20
8.4177672
40
8.1228016
50
239.4080451
51
246.0669988
0
ARC
8
DEFAULT_255_2_778
10
8.2200244
20
8.990769
40
8.7501719
50
246.0601016
51
252.5254512
0
ARC
8
DEFAULT_255_2_778
10
8.3892684
20
9.5249273
40
9.3105
50
252.5190802
51
258.5842175
0
ARC
8
DEFAULT_255_2_778
10
8.494205
20
10.0418489
40
9.8379651
50
258.5810274
51
264.3244707
0
ARC
8
DEFAULT_255_2_778
10
8.5487273
20
10.5920871
40
10.3908981
50
264.3253565
51
270.0270787
0
ARC
8
DEFAULT_255_2_778
10
8.5535036
20
10.9451744
40
10.7439842
50
270.0007179
51
270.9076212
0
ARC
8
DEFAULT_255_2_778
10
8.5518609
20
11.0487737
40
10.8475965
50
270.9076285
51
271.8130666
0
ARC
8
DEFAULT_255_2_778
10
8.5669682
20
10.324876
40
10.1235862
50
271.8572312
51
272.1013882
0
ARC
8
DEFAULT_255_2_778
10
8.5589913
20
10.5289382
40
10.3278037
50
272.1041011
51
280.1523237
0
ARC
8
DEFAULT_255_2_778
10
8.7886338
20
9.2699843
40
9.0480846
50
280.1261302
51
285.5372003
0
ARC
8
DEFAULT_255_2_778
10
9.2926782
20
7.4643787
40
7.1734468
50
285.5214794
51
290.8649781
0
ARC
8
DEFAULT_255_2_778
10
9.9542468
20
5.7350097
40
5.3218574
50
290.840856
51
296.7725507
0
ARC
8
DEFAULT_255_2_778
10
10.6820349
20
4.3006794
40
3.7134548
50
296.7158249
51
304.1333621
0
ARC
8
DEFAULT_255_2_778
10
11.172228
20
3.5581724
40
2.8238201
50
304.3542592
51
307.3672285
0
ARC
8
DEFAULT_255_2_778
10
9.8165373
20
5.3271058
40
5.0525001
50
307.4108636
51
308.9665614
0
ARC
8
DEFAULT_255_2_778
10
10.9094327
20
3.9785536
40
3.3166979
50
308.9375249
51
311.1251887
0
ARC
8
DEFAULT_255_2_778
10
11.7646946
20
3.0009658
40
2.0177953
50
311.0888145
51
314.0757439
0
ARC
8
DEFAULT_255_2_778
10
12.3959289
20
2.3518399
40
1.1123593
50
313.9750817
51
318.6197281
0
ARC
8
DEFAULT_255_2_778
10
12.8385587
20
1.9647938
40
0.5243834
50
318.3808498
51
326.3187869
0
ARC
8
DEFAULT_255_2_778
10
13.1132409
20
1.7849867
40
0.1961132
50
325.5279042
51
342.0903914
0
ARC
8
DEFAULT_255_2_778
10
13.2219074
20
1.7484926
40
0.0815005
50
343.0106336
51
359.1886952
0
ARC
8
DEFAULT_255_2_778
10
13.2478453
20
1.7451164
40
0.0555988
50
2.2906781
51
81.4625702
0
ARC
8
DEFAULT_255_2_778
10
13.1894633
20
1.5578208
40
0.251275
50
74.6216834
51
89.9520071
0
ARC
8
DEFAULT_255_2_778
10
13.1785074
20
1.334048
40
0.4751788
50
88.6534635
51
90.0164684
0
ARC
8
DEFAULT_255_2_778
10
13.1844561
20
1.0332252
40
0.7760253
50
90.4492945
51
96.3332955
0
ARC
8
DEFAULT_255_2_778
10
13.21346
20
0.7101609
40
1.1003384
50
95.9786398
51
96.1164354
0
ARC
8
DEFAULT_255_2_778
10
13.2615596
20
0.2866401
40
1.5265756
50
96.2177725
51
98.4336919
0
ARC
8
DEFAULT_255_2_778
10
13.1732629
20
0.9054579
40
0.9015061
50
98.6508533
51
104.7980297
0
ARC
8
DEFAULT_255_2_778
10
13.3551463
20
0.2031361
40
1.6269927
50
104.6736781
51
108.7007339
0
ARC
8
DEFAULT_255_2_778
10
13.5459725
20
-0.3728521
40
2.2337594
50
108.600071
51
110.9390699
0
ARC
8
DEFAULT_255_2_778
10
13.5206063
20
-0.3108426
40
2.1667803
50
110.8986012
51
112.273993
0
ARC
8
DEFAULT_255_2_778
10
13.1674863
20
0.5490963
40
1.2371636
50
112.2358836
51
113.1269113
0
ARC
8
DEFAULT_255_2_778
10
12.7107451
20
1.6186835
40
0.0741376
50
113.1768888
51
113.4308976
0
ARC
8
DEFAULT_255_2_778
10
8.1937673
20
11.624528
40
10.9040316
50
285.9273849
51
294.3019136
0
ARC
8
DEFAULT_255_2_778
10
8.8811097
20
9.2060697
40
8.3897981
50
271.1800905
51
285.9459267
0
ARC
8
DEFAULT_255_2_778
10
8.9064945
20
8.9042059
40
8.0874982
50
269.9997896
51
271.0443339
0
ARC
8
DEFAULT_255_2_778
10
8.895377
20
11.0283875
40
10.2116857
50
264.4690929
51
270.0622113
0
ARC
8
DEFAULT_255_2_778
10
8.7690238
20
9.7393629
40
8.9164843
50
258.0394344
51
264.4788948
0
ARC
8
DEFAULT_255_2_778
10
8.531744
20
8.6283886
40
7.7804555
50
250.3600287
51
258.0533668
0
ARC
8
DEFAULT_255_2_778
10
8.2068679
20
7.7243807
40
6.8198463
50
240.7077466
51
250.3779314
0
ARC
8
DEFAULT_255_2_778
10
7.82552
20
7.0560454
40
6.0503901
50
224.5274488
51
240.7607224
0
ARC
8
DEFAULT_255_2_778
10
7.7525672
20
6.9607786
40
5.9315986
50
207.2818065
51
224.3655684
0
ARC
8
DEFAULT_255_2_778
10
8.2859123
20
7.2394771
40
6.5333629
50
197.5263037
51
207.3101229
0
ARC
8
DEFAULT_255_2_778
10
9.0768547
20
7.4914845
40
7.3634794
50
189.9545041
51
197.5428126
0
ARC
8
DEFAULT_255_2_778
10
10.0806996
20
7.6690442
40
8.3829059
50
183.5405149
51
189.9637707
0
ARC
8
DEFAULT_255_2_778
10
11.0568932
20
7.7368936
40
9.3614293
50
179.9742076
51
183.5860247
0
ARC
8
DEFAULT_255_2_778
10
11.9248969
20
7.7509008
40
10.2294368
50
173.278724
51
180.0548514
0
ARC
8
DEFAULT_255_2_778
10
10.9846738
20
7.8637709
40
9.2824655
50
165.0703563
51
173.2913843
0
ARC
8
DEFAULT_255_2_778
10
10.1840985
20
8.0796846
40
8.4532892
50
154.4767347
51
165.0864244
0
ARC
8
DEFAULT_255_2_778
10
9.6069359
20
8.3626483
40
7.8105319
50
125.7922271
51
154.5256122
0
ARC
8
DEFAULT_255_2_778
10
9.3799895
20
8.7680185
40
7.3491805
50
97.5488427
51
126.2053816
0
ARC
8
DEFAULT_255_2_778
10
9.5691934
20
7.6768445
40
8.455869
50
89.9337901
51
97.8484395
0
ARC
8
DEFAULT_255_2_778
10
9.5885179
20
7.9621163
40
8.170597
50
83.0012667
51
90.0669904
0
ARC
8
DEFAULT_255_2_778
10
9.6965274
20
8.8337662
40
7.2922814
50
75.0519041
51
83.0090959
0
ARC
8
DEFAULT_255_2_778
10
9.9013988
20
9.5928748
40
6.5060161
50
65.3454593
51
75.0706717
0
ARC
8
DEFAULT_255_2_778
10
10.1910264
20
10.2171747
40
5.8178114
50
52.4578097
51
65.3730419
0
ARC
8
DEFAULT_255_2_778
10
10.4868114
20
10.598924
40
5.3348859
50
22.0661192
51
52.4783455
0
ARC
8
DEFAULT_255_2_778
10
10.1001321
20
10.4395908
40
5.7530996
50
11.3488572
51
22.0899812
0
ARC
8
DEFAULT_255_2_778
10
9.4901884
20
10.3163581
40
6.3753673
50
2.6882255
51
11.3560197
0
ARC
8
DEFAULT_255_2_778
10
8.9605857
20
10.2827363
40
6.9059695
50
359.9899763
51
2.7607862
0
ARC
8
DEFAULT_255_2_778
10
8.7732594
20
10.2815927
40
7.0932958
50
359.4815425
51
359.9994784
0
ARC
8
DEFAULT_255_2_778
10
-0.1978515
20
10.3464483
40
16.0646346
50
357.633738
51
359.539762
0
ARC
8
DEFAULT_255_2_778
10
4.010621
20
10.1676525
40
11.8523697
50
354.8592878
51
357.6573611
0
ARC
8
DEFAULT_255_2_778
10
7.0973892
20
9.8865259
40
8.7528286
50
350.9697734
51
354.8816434
0
ARC
8
DEFAULT_255_2_778
10
9.1938347
20
9.550165
40
6.6295742
50
345.3713909
51
350.9969387
0
ARC
8
DEFAULT_255_2_778
10
10.479557
20
9.2099845
40
5.2996194
50
334.8895349
51
345.4193991
0
ARC
8
DEFAULT_255_2_778
10
10.3436667
20
9.2969926
40
5.459631
50
324.8172635
51
334.6679123
0
ARC
8
DEFAULT_255_2_778
10
9.359113
20
9.9682201
40
6.6511031
50
322.1575694
51
324.9781774
0
ARC
8
DEFAULT_255_2_778
10
8.6911803
20
10.4840391
40
7.4950215
50
320.5468033
51
322.1761353
0
ARC
8
DEFAULT_255_2_778
10
8.1692132
20
10.9121165
40
8.1700761
50
319.5739044
51
320.5548363
0
ARC
8
DEFAULT_255_2_778
10
7.6980312
20
11.3135239
40
8.7890593
50
318.6459855
51
319.5737558
0
ARC
8
DEFAULT_255_2_778
10
11.3668845
20
8.0878708
40
3.9038465
50
309.9505903
51
318.6058116
0
ARC
8
DEFAULT_255_2_778
10
11.2414182
20
8.2405041
40
4.1014207
50
301.0306991
51
309.925058
0
ARC
8
DEFAULT_255_2_778
10
11.0726467
20
8.5212898
40
4.4290247
50
293.0517755
51
301.0290766
0
ARC
8
DEFAULT_255_2_778
10
10.9702183
20
8.7530267
40
4.6823661
50
289.7610487
51
293.0947268
0
ARC
8
DEFAULT_255_2_778
10
10.9110909
20
8.9207153
40
4.8601708
50
283.8740798
51
289.7486727
0
ARC
8
DEFAULT_255_2_778
10
10.8895103
20
9.0024211
40
4.944668
50
279.0512979
51
283.8898246
0
ARC
8
DEFAULT_255_2_778
10
10.9091017
20
8.8730509
40
4.8138266
50
274.7151518
51
279.0632597
0
ARC
8
DEFAULT_255_2_778
10
10.9370285
20
8.5237655
40
4.4634278
50
270.6454857
51
274.7264435
0
ARC
8
DEFAULT_255_2_778
10
10.9429597
20
8.2316387
40
4.1712535
50
270.0010192
51
270.6092261
0
ARC
8
DEFAULT_255_2_778
10
10.9422314
20
8.0474879
40
3.9871028
50
268.0658777
51
270.0115311
0
ARC
8
DEFAULT_255_2_778
10
10.9327217
20
7.761807
40
3.7012637
50
266.3825187
51
268.0637492
0
ARC
8
DEFAULT_255_2_778
10
10.9145059
20
7.4754605
40
3.4143382
50
264.6299439
51
266.3844054
0
ARC
8
DEFAULT_255_2_778
10
10.8390909
20
6.7375391
40
2.6726044
50
258.3339559
51
264.7590743
0
ARC
8
DEFAULT_255_2_778
10
10.6825902
20
5.9893394
40
1.9082158
50
249.7991065
51
258.3933087
0
ARC
8
DEFAULT_255_2_778
10
10.498489
20
5.4929675
40
1.378805
50
238.2246678
51
249.8561641
0
ARC
8
DEFAULT_255_2_778
10
10.335488
20
5.2302812
40
1.0696557
50
221.20805
51
238.2376529
0
ARC
8
DEFAULT_255_2_778
10
10.4383579
20
5.2827454
40
1.181949
50
188.4472822
51
219.8360465
0
ARC
8
DEFAULT_255_2_778
10
11.1237675
20
5.4364957
40
1.8832102
50
186.8599718
51
190.0111784
0
ARC
8
DEFAULT_255_2_778
10
11.8944178
20
5.5176987
40
2.6580672
50
180.6931415
51
186.6136516
0
ARC
8
DEFAULT_255_2_778
10
13.1932021
20
5.5523273
40
3.9572207
50
180.37239
51
180.966998
0
ARC
8
DEFAULT_255_2_778
10
8.8563588
20
13.471906
40
0.3792098
50
359.7434147
51
359.9930345
0
ARC
8
DEFAULT_255_2_778
10
8.8619434
20
13.4718511
40
0.3736251
50
0.0013504
51
30.772277
0
ARC
8
DEFAULT_255_2_778
10
8.6741134
20
13.9652387
40
0.2768693
50
29.3413313
51
88.5114807
0
ARC
8
DEFAULT_255_2_778
10
8.681333
20
13.9927503
40
0.2492643
50
90.00632
51
90.4294305
0
ARC
8
DEFAULT_255_2_778
10
8.6894563
20
13.9607759
40
0.2814093
50
92.0347304
51
150.859777
0
ARC
8
DEFAULT_255_2_778
10
8.5055581
20
13.4721668
40
0.3730095
50
149.8337996
51
179.8453871
0
ARC
8
DEFAULT_255_2_778
10
8.4929428
20
13.4731519
40
0.3603927
50
179.996588
51
180.5157598
0
ARC
8
DEFAULT_255_2_778
10
8.1619016
20
5.5371915
40
0.0309468
50
181.4511958
51
193.1372882
0
ARC
8
DEFAULT_255_2_778
10
8.101628
20
5.5231241
40
0.0309468
50
1.4511958
51
13.1372882
0
ARC
8
DEFAULT_255_2_778
10
8.126144
20
5.5259887
40
0.0067496
50
315.7326032
51
342.0430025
0
ARC
8
DEFAULT_255_2_778
10
8.1349557
20
5.5172583
40
0.0056551
50
134.708
51
171.3608315
0
ARC
8
DEFAULT_255_2_778
10
9.6592374
20
5.538564
40
1.5300093
50
180.7660662
51
216.6883608
0
ARC
8
DEFAULT_255_2_778
10
10.15535
20
5.877421
40
2.1304378
50
216.0246012
51
232.8133058
0
ARC
8
DEFAULT_255_2_778
10
10.498241
20
6.3197321
40
2.6900683
50
232.6890899
51
246.3213558
0
ARC
8
DEFAULT_255_2_778
10
10.6900812
20
6.748289
40
3.1595924
50
246.2564646
51
258.8055
0
ARC
8
DEFAULT_255_2_778
10
10.7509471
20
7.025997
40
3.4438381
50
258.709111
51
265.5570414
0
LINE
8
DEFAULT_255_2_778
10
9.2360648
20
5.5266078
11
9.2360648
21
5.5983078
0
LINE
8
DEFAULT_255_2_778
10
9.2360648
20
5.5983078
11
9.2355648
21
13.4702078
0
LINE
8
DEFAULT_255_2_778
10
9.1829648
20
13.6630078
11
8.9154648
21
14.1009078
0
LINE
8
DEFAULT_255_2_778
10
8.4436648
20
14.0978078
11
8.1830648
21
13.6596078
0
LINE
8
DEFAULT_255_2_778
10
8.1325648
20
13.4699078
11
8.1314648
21
5.6491078
0
LINE
8
DEFAULT_255_2_778
10
8.1314648
20
5.6491078
11
8.1309648
21
5.5364078
0
LINE
8
DEFAULT_255_2_778
10
10.4841648
20
3.5925078
11
10.4843648
21
3.5922078
0
LINE
8
DEFAULT_255_2_778
10
13.4381615
20
0.3542562
11
13.2630615
21
0.3542562
0
LINE
8
DEFAULT_255_2_778
10
13.2630615
20
0.3542562
11
13.2630615
21
-0.1320438
0
LINE
8
DEFAULT_255_2_778
10
13.2630615
20
-0.1320438
11
13.1971615
21
-0.1320438
0
LINE
8
DEFAULT_255_2_778
10
13.1971615
20
-0.1320438
11
13.1971615
21
0.3542562
0
LINE
8
DEFAULT_255_2_778
10
13.1971615
20
0.3542562
11
13.0156615
21
0.3542562
0
LINE
8
DEFAULT_255_2_778
10
13.0156615
20
0.3542562
11
13.0156615
21
0.4121562
0
LINE
8
DEFAULT_255_2_778
10
13.0156615
20
0.4121562
11
13.4381615
21
0.4121562
0
LINE
8
DEFAULT_255_2_778
10
13.4381615
20
0.4121562
11
13.4381615
21
0.3542562
0
LINE
8
DEFAULT_255_2_778
10
13.4381615
20
0.3542562
11
13.4381615
21
0.3542562
0
LINE
8
DEFAULT_255_2_778
10
13.8236615
20
-0.0209438
11
13.9943615
21
0.4118562
0
LINE
8
DEFAULT_255_2_778
10
13.9943615
20
0.4118562
11
14.1065615
21
0.4118562
0
LINE
8
DEFAULT_255_2_778
10
14.1065615
20
0.4118562
11
14.1065615
21
-0.1323438
0
LINE
8
DEFAULT_255_2_778
10
14.1065615
20
-0.1323438
11
14.0406615
21
-0.1323438
0
LINE
8
DEFAULT_255_2_778
10
14.0406615
20
-0.1323438
11
14.0406615
21
0.3539562
0
LINE
8
DEFAULT_255_2_778
10
14.0406615
20
0.3539562
11
14.0377615
21
0.3539562
0
LINE
8
DEFAULT_255_2_778
10
14.0377615
20
0.3539562
11
13.8414615
21
-0.1323438
0
LINE
8
DEFAULT_255_2_778
10
13.8414615
20
-0.1323438
11
13.8017615
21
-0.1323438
0
LINE
8
DEFAULT_255_2_778
10
13.8017615
20
-0.1323438
11
13.6046615
21
0.3539562
0
LINE
8
DEFAULT_255_2_778
10
13.6046615
20
0.3539562
11
13.6019615
21
0.3539562
0
LINE
8
DEFAULT_255_2_778
10
13.6019615
20
0.3539562
11
13.6019615
21
-0.1323438
0
LINE
8
DEFAULT_255_2_778
10
13.6019615
20
-0.1323438
11
13.5360615
21
-0.1323438
0
LINE
8
DEFAULT_255_2_778
10
13.5360615
20
-0.1323438
11
13.5360615
21
0.4118562
0
LINE
8
DEFAULT_255_2_778
10
13.5360615
20
0.4118562
11
13.6485615
21
0.4118562
0
LINE
8
DEFAULT_255_2_778
10
13.6485615
20
0.4118562
11
13.8239615
21
-0.0209438
0
LINE
8
DEFAULT_255_2_778
10
13.8239615
20
-0.0209438
11
13.8236615
21
-0.0209438
0
ENDSEC
0
EOF