0
SECTION
2
HEADER
9
$MEASUREMENT
70
1
0
ENDSEC
0
SECTION
2
TABLES
0
TABLE
2
LTYPE
0
LTYPE
72
65
70
64
2
CONTINUOUS
3
______
73
0
40
0
0
ENDTAB
0
TABLE
2
LAYER
0
LAYER
2
DEFAULT_255_2_778
70
0
62
255
6
CONTINUOUS
0
ENDTAB
0
ENDSEC
0
SECTION
2
ENTITIES
0
ARC
8
DEFAULT_255_2_778
10
8.1232224
20
2.517455
40
5.3450904
50
167.0932987
51
180.0427536
0
ARC
8
DEFAULT_255_2_778
10
8.0384011
20
2.5344489
40
5.2586169
50
148.3180854
51
167.0673517
0
ARC
8
DEFAULT_255_2_778
10
8.0612765
20
2.5214409
40
5.2849153
50
110.0832017
51
148.328327
0
ARC
8
DEFAULT_255_2_778
10
8.0557263
20
2.5215304
40
5.2829279
50
95.3310996
51
110.0270003
0
ARC
8
DEFAULT_255_2_778
10
8.0689635
20
2.4008221
40
5.4043445
50
89.9907771
51
95.3519304
0
ARC
8
DEFAULT_255_2_778
10
8.0738193
20
2.4603767
40
5.3447913
50
77.0929369
51
90.0427279
0
ARC
8
DEFAULT_255_2_778
10
8.0907745
20
2.5450391
40
5.2584813
50
58.3175703
51
77.0669583
0
ARC
8
DEFAULT_255_2_778
10
8.0776752
20
2.5220235
40
5.2849469
50
20.0830758
51
58.3277709
0
ARC
8
DEFAULT_255_2_778
10
8.0777634
20
2.5275698
40
5.2829621
50
5.3311072
51
20.02691
0
ARC
8
DEFAULT_255_2_778
10
7.957089
20
2.5143365
40
5.4043445
50
359.9907771
51
5.3519304
0
ARC
8
DEFAULT_255_2_778
10
8.0166283
20
2.5094815
40
5.3448067
50
347.0929653
51
0.0427185
0
ARC
8
DEFAULT_255_2_778
10
8.1012604
20
2.492533
40
5.2585278
50
328.3177859
51
347.0669902
0
ARC
8
DEFAULT_255_2_778
10
8.0782922
20
2.5055919
40
5.2849318
50
290.0836664
51
328.3280884
0
ARC
8
DEFAULT_255_2_778
10
8.0839234
20
2.5053043
40
5.2827306
50
275.3313078
51
290.0273754
0
ARC
8
DEFAULT_255_2_778
10
8.0707029
20
2.6258693
40
5.4040028
50
269.990782
51
275.3521003
0
ARC
8
DEFAULT_255_2_778
10
8.0658459
20
2.5669708
40
5.3451058
50
257.0933271
51
270.0427441
0
ARC
8
DEFAULT_255_2_778
10
8.0488586
20
2.4821799
40
5.2586634
50
238.318301
51
257.0673836
0
ARC
8
DEFAULT_255_2_778
10
8.0618263
20
2.5050079
40
5.2849002
50
200.0837923
51
238.3286446
0
ARC
8
DEFAULT_255_2_778
10
8.0615374
20
2.4993727
40
5.2826964
50
185.3313002
51
200.0274658
0
ARC
8
DEFAULT_255_2_778
10
8.1821363
20
2.5125971
40
5.4040028
50
179.990782
51
185.3521003
0
LINE
8
DEFAULT_255_2_778
10
2.7781335
20
2.5134665
11
2.7781335
21
2.5134665
0
LINE
8
DEFAULT_255_2_778
10
12.8322501
20
4.8947416
11
4.8947501
21
6.7468416
0
LINE
8
DEFAULT_255_2_778
10
12.8322501
20
0.1322416
11
4.8947501
21
-1.7198584
0
ENDSEC
0
EOF