0
SECTION
2
HEADER
9
$MEASUREMENT
70
1
0
ENDSEC
0
SECTION
2
TABLES
0
TABLE
2
LTYPE
0
LTYPE
72
65
70
64
2
CONTINUOUS
3
______
73
0
40
0
0
ENDTAB
0
TABLE
2
LAYER
0
LAYER
2
DEFAULT_255_2_778
70
0
62
255
6
CONTINUOUS
0
ENDTAB
0
ENDSEC
0
SECTION
2
ENTITIES
0
LINE
8
DEFAULT_255_2_778
10
2.7781002
20
2.5135333
11
18.6531002
21
2.5135333
0
LINE
8
DEFAULT_255_2_778
10
18.6531002
20
2.5135333
11
18.6531002
21
-2.7781667
0
LINE
8
DEFAULT_255_2_778
10
18.6531002
20
-2.7781667
11
2.7781002
21
-2.7781667
0
LINE
8
DEFAULT_255_2_778
10
2.7781002
20
-2.7781667
11
2.7781002
21
2.5135333
0
LINE
8
DEFAULT_255_2_778
10
2.7781689
20
-0.1322667
11
5.2205689
21
-0.1322667
0
LINE
8
DEFAULT_255_2_778
10
5.2205689
20
-0.1322667
11
6.4418689
21
2.5135333
0
LINE
8
DEFAULT_255_2_778
10
6.4418689
20
2.5135333
11
7.6628689
21
-2.7781667
0
LINE
8
DEFAULT_255_2_778
10
7.6628689
20
-2.7781667
11
8.8839689
21
2.5135333
0
LINE
8
DEFAULT_255_2_778
10
8.8839689
20
2.5135333
11
10.1049689
21
-2.7781667
0
LINE
8
DEFAULT_255_2_778
10
10.1049689
20
-2.7781667
11
11.3263689
21
2.5135333
0
LINE
8
DEFAULT_255_2_778
10
11.3263689
20
2.5135333
11
12.5473689
21
-2.7781667
0
LINE
8
DEFAULT_255_2_778
10
12.5473689
20
-2.7781667
11
13.7684689
21
2.5135333
0
LINE
8
DEFAULT_255_2_778
10
13.7684313
20
2.5135333
11
14.9895313
21
-2.7781667
0
LINE
8
DEFAULT_255_2_778
10
14.9895313
20
-2.7781667
11
16.2105313
21
-0.1322667
0
LINE
8
DEFAULT_255_2_778
10
16.2105313
20
-0.1322667
11
18.6531313
21
-0.1322667
0
ENDSEC
0
EOF